ISO-10303-21;
HEADER;
FILE_DESCRIPTION(('STEP AP214'),'1');
FILE_NAME(' ','  ',('TraceParts'),('TraceParts S.A.'),'XStep 1.0',' ',' ');
FILE_SCHEMA(('automotive_design'));
ENDSEC;
DATA;
#1=MECHANICAL_DESIGN_GEOMETRIC_PRESENTATION_REPRESENTATION(' ',(#10,#11,#12,#13,#14,#15,#16,#17,#18,#19,#20,#21,#22,#23,#24,#25,#26,#27,#28,#29,#30,#31,#32,#33,#34,#35,#36),#6);
#2=PRODUCT_DEFINITION_CONTEXT('',#37,'design');
#3=APPLICATION_PROTOCOL_DEFINITION('INTERNATIONAL STANDARD','automotive_design',1994,#37);
#4=PRODUCT_CATEGORY_RELATIONSHIP('NONE','NONE',#38,#39);
#5=SHAPE_DEFINITION_REPRESENTATION(#40,#41);
#6= (GEOMETRIC_REPRESENTATION_CONTEXT(3)GLOBAL_UNCERTAINTY_ASSIGNED_CONTEXT((#44))GLOBAL_UNIT_ASSIGNED_CONTEXT((#46,#47,#48))REPRESENTATION_CONTEXT('NONE','WORKSPACE'));
#10=STYLED_ITEM('',(#50),#51);
#11=STYLED_ITEM('',(#52),#53);
#12=STYLED_ITEM('',(#54),#55);
#13=STYLED_ITEM('',(#56),#57);
#14=STYLED_ITEM('',(#58),#59);
#15=STYLED_ITEM('',(#60),#61);
#16=STYLED_ITEM('',(#62),#63);
#17=STYLED_ITEM('',(#64),#65);
#18=STYLED_ITEM('',(#66),#67);
#19=STYLED_ITEM('',(#68),#69);
#20=STYLED_ITEM('',(#70),#71);
#21=STYLED_ITEM('',(#72),#73);
#22=STYLED_ITEM('',(#74),#75);
#23=STYLED_ITEM('',(#76),#77);
#24=STYLED_ITEM('',(#78),#79);
#25=STYLED_ITEM('',(#80),#81);
#26=STYLED_ITEM('',(#82),#83);
#27=STYLED_ITEM('',(#84),#85);
#28=STYLED_ITEM('',(#86),#87);
#29=STYLED_ITEM('',(#88),#89);
#30=STYLED_ITEM('',(#90),#91);
#31=STYLED_ITEM('',(#92),#93);
#32=STYLED_ITEM('',(#94),#95);
#33=STYLED_ITEM('',(#96),#97);
#34=STYLED_ITEM('',(#98),#99);
#35=STYLED_ITEM('',(#100),#101);
#36=STYLED_ITEM('',(#102),#103);
#37=APPLICATION_CONTEXT(' ');
#38=PRODUCT_CATEGORY('part','NONE');
#39=PRODUCT_RELATED_PRODUCT_CATEGORY('detail',' ',(#104));
#40=PRODUCT_DEFINITION_SHAPE('NONE','NONE',#105);
#41=ADVANCED_BREP_SHAPE_REPRESENTATION('1',(#55,#106),#6);
#44=UNCERTAINTY_MEASURE_WITH_UNIT(LENGTH_MEASURE(1.0E-006),#46,'','');
#46= (CONVERSION_BASED_UNIT('MILLIMETRE',#109)LENGTH_UNIT()NAMED_UNIT(#112));
#47= (NAMED_UNIT(#114)PLANE_ANGLE_UNIT()SI_UNIT($,.RADIAN.));
#48= (NAMED_UNIT(#114)SOLID_ANGLE_UNIT()SI_UNIT($,.STERADIAN.));
#50=PRESENTATION_STYLE_ASSIGNMENT((#120));
#51=VERTEX_POINT('',#121);
#52=PRESENTATION_STYLE_ASSIGNMENT((#122));
#53=EDGE_CURVE('',#89,#51,#123,.T.);
#54=PRESENTATION_STYLE_ASSIGNMENT((#124));
#55=MANIFOLD_SOLID_BREP('1',#125);
#56=PRESENTATION_STYLE_ASSIGNMENT((#126));
#57=EDGE_CURVE('',#51,#95,#127,.T.);
#58=PRESENTATION_STYLE_ASSIGNMENT((#128));
#59=EDGE_CURVE('',#95,#93,#129,.T.);
#60=PRESENTATION_STYLE_ASSIGNMENT((#130));
#61=ADVANCED_FACE('',(#131),#132,.T.);
#62=PRESENTATION_STYLE_ASSIGNMENT((#133));
#63=ADVANCED_FACE('',(#134,#135),#136,.F.);
#64=PRESENTATION_STYLE_ASSIGNMENT((#137));
#65=EDGE_CURVE('',#77,#101,#138,.T.);
#66=PRESENTATION_STYLE_ASSIGNMENT((#139));
#67=VERTEX_POINT('',#140);
#68=PRESENTATION_STYLE_ASSIGNMENT((#141));
#69=EDGE_CURVE('',#101,#77,#142,.T.);
#70=PRESENTATION_STYLE_ASSIGNMENT((#143));
#71=ADVANCED_FACE('',(#144),#145,.T.);
#72=PRESENTATION_STYLE_ASSIGNMENT((#146));
#73=ADVANCED_FACE('',(#147),#148,.F.);
#74=PRESENTATION_STYLE_ASSIGNMENT((#149));
#75=EDGE_CURVE('',#101,#67,#150,.T.);
#76=PRESENTATION_STYLE_ASSIGNMENT((#151));
#77=VERTEX_POINT('',#152);
#78=PRESENTATION_STYLE_ASSIGNMENT((#153));
#79=EDGE_CURVE('',#97,#67,#154,.T.);
#80=PRESENTATION_STYLE_ASSIGNMENT((#155));
#81=ADVANCED_FACE('',(#156),#157,.F.);
#82=PRESENTATION_STYLE_ASSIGNMENT((#158));
#83=ADVANCED_FACE('',(#159,#160),#161,.T.);
#84=PRESENTATION_STYLE_ASSIGNMENT((#162));
#85=EDGE_CURVE('',#67,#97,#163,.T.);
#86=PRESENTATION_STYLE_ASSIGNMENT((#164));
#87=EDGE_CURVE('',#97,#77,#165,.T.);
#88=PRESENTATION_STYLE_ASSIGNMENT((#166));
#89=VERTEX_POINT('',#167);
#90=PRESENTATION_STYLE_ASSIGNMENT((#168));
#91=EDGE_CURVE('',#93,#89,#169,.T.);
#92=PRESENTATION_STYLE_ASSIGNMENT((#170));
#93=VERTEX_POINT('',#171);
#94=PRESENTATION_STYLE_ASSIGNMENT((#172));
#95=VERTEX_POINT('',#173);
#96=PRESENTATION_STYLE_ASSIGNMENT((#174));
#97=VERTEX_POINT('',#175);
#98=PRESENTATION_STYLE_ASSIGNMENT((#176));
#99=EDGE_CURVE('',#51,#89,#177,.T.);
#100=PRESENTATION_STYLE_ASSIGNMENT((#178));
#101=VERTEX_POINT('',#179);
#102=PRESENTATION_STYLE_ASSIGNMENT((#180));
#103=EDGE_CURVE('',#93,#95,#181,.T.);
#104=PRODUCT('1','1','PART-1-DESC',(#182));
#105=PRODUCT_DEFINITION('NONE','NONE',#183,#2);
#106=AXIS2_PLACEMENT_3D('',#184,#185,#186);
#109=LENGTH_MEASURE_WITH_UNIT(LENGTH_MEASURE(1.0),#187);
#112=DIMENSIONAL_EXPONENTS(1.0,0.0,0.0,0.0,0.0,0.0,0.0);
#114=DIMENSIONAL_EXPONENTS(0.0,0.0,0.0,0.0,0.0,0.0,0.0);
#120=POINT_STYLE(' ',#188,POSITIVE_LENGTH_MEASURE(1.0E-006),#189);
#121=CARTESIAN_POINT('',(19.75,0.0,0.0));
#122=CURVE_STYLE('',#190,POSITIVE_LENGTH_MEASURE(1.0E-006),#191);
#123=CIRCLE('',#192,19.75);
#124=SURFACE_STYLE_USAGE(.BOTH.,#193);
#125=CLOSED_SHELL('',(#61,#81,#73,#71,#63,#83));
#126=CURVE_STYLE('',#194,POSITIVE_LENGTH_MEASURE(1.0E-006),#195);
#127=LINE('',#196,#197);
#128=CURVE_STYLE('',#198,POSITIVE_LENGTH_MEASURE(1.0E-006),#199);
#129=CIRCLE('',#200,19.75);
#130=SURFACE_STYLE_USAGE(.BOTH.,#201);
#131=FACE_OUTER_BOUND('',#202,.T.);
#132=CYLINDRICAL_SURFACE('',#203,19.75);
#133=SURFACE_STYLE_USAGE(.BOTH.,#204);
#134=FACE_BOUND('',#205,.T.);
#135=FACE_OUTER_BOUND('',#206,.T.);
#136=PLANE('',#207);
#137=CURVE_STYLE('',#208,POSITIVE_LENGTH_MEASURE(1.0E-006),#209);
#138=CIRCLE('',#210,6.5);
#139=POINT_STYLE(' ',#211,POSITIVE_LENGTH_MEASURE(1.0E-006),#212);
#140=CARTESIAN_POINT('',(6.5,0.0,0.0));
#141=CURVE_STYLE('',#213,POSITIVE_LENGTH_MEASURE(1.0E-006),#214);
#142=CIRCLE('',#215,6.5);
#143=SURFACE_STYLE_USAGE(.BOTH.,#216);
#144=FACE_OUTER_BOUND('',#217,.T.);
#145=CYLINDRICAL_SURFACE('',#218,19.75);
#146=SURFACE_STYLE_USAGE(.BOTH.,#219);
#147=FACE_OUTER_BOUND('',#220,.T.);
#148=CYLINDRICAL_SURFACE('',#221,6.5);
#149=CURVE_STYLE('',#222,POSITIVE_LENGTH_MEASURE(1.0E-006),#223);
#150=LINE('',#224,#225);
#151=POINT_STYLE(' ',#226,POSITIVE_LENGTH_MEASURE(1.0E-006),#227);
#152=CARTESIAN_POINT('',(-6.5,0.0,5.0));
#153=CURVE_STYLE('',#228,POSITIVE_LENGTH_MEASURE(1.0E-006),#229);
#154=CIRCLE('',#230,6.5);
#155=SURFACE_STYLE_USAGE(.BOTH.,#231);
#156=FACE_OUTER_BOUND('',#232,.T.);
#157=CYLINDRICAL_SURFACE('',#233,6.5);
#158=SURFACE_STYLE_USAGE(.BOTH.,#234);
#159=FACE_BOUND('',#235,.T.);
#160=FACE_OUTER_BOUND('',#236,.T.);
#161=PLANE('',#237);
#162=CURVE_STYLE('',#238,POSITIVE_LENGTH_MEASURE(1.0E-006),#239);
#163=CIRCLE('',#240,6.5);
#164=CURVE_STYLE('',#241,POSITIVE_LENGTH_MEASURE(1.0E-006),#242);
#165=LINE('',#243,#244);
#166=POINT_STYLE(' ',#245,POSITIVE_LENGTH_MEASURE(1.0E-006),#246);
#167=CARTESIAN_POINT('',(-19.75,2.4185975487992E-015,0.0));
#168=CURVE_STYLE('',#247,POSITIVE_LENGTH_MEASURE(1.0E-006),#248);
#169=LINE('',#249,#250);
#170=POINT_STYLE(' ',#251,POSITIVE_LENGTH_MEASURE(1.0E-006),#252);
#171=CARTESIAN_POINT('',(-19.75,0.0,5.0));
#172=POINT_STYLE(' ',#253,POSITIVE_LENGTH_MEASURE(1.0E-006),#254);
#173=CARTESIAN_POINT('',(19.75,-2.4185975487992E-015,5.0));
#174=POINT_STYLE(' ',#255,POSITIVE_LENGTH_MEASURE(1.0E-006),#256);
#175=CARTESIAN_POINT('',(-6.5,7.95994129984545E-016,0.0));
#176=CURVE_STYLE('',#257,POSITIVE_LENGTH_MEASURE(1.0E-006),#258);
#177=CIRCLE('',#259,19.75);
#178=POINT_STYLE(' ',#260,POSITIVE_LENGTH_MEASURE(1.0E-006),#261);
#179=CARTESIAN_POINT('',(6.5,-7.95994129984545E-016,5.0));
#180=CURVE_STYLE('',#262,POSITIVE_LENGTH_MEASURE(1.0E-006),#263);
#181=CIRCLE('',#264,19.75);
#182=PRODUCT_CONTEXT('',#37,'mechanical');
#183=PRODUCT_DEFINITION_FORMATION_WITH_SPECIFIED_SOURCE(' ','NONE',#104,.NOT_KNOWN.);
#184=CARTESIAN_POINT('',(0.0,0.0,0.0));
#185=DIRECTION('',(0.0,0.0,1.0));
#186=DIRECTION('',(1.0,0.0,0.0));
#187= (NAMED_UNIT(#112)LENGTH_UNIT()SI_UNIT(.MILLI.,.METRE.));
#188=PRE_DEFINED_MARKER('');
#189=COLOUR_RGB('',0.509803950786591,0.509803950786591,0.588235318660736);
#190=DRAUGHTING_PRE_DEFINED_CURVE_FONT('continuous');
#191=COLOUR_RGB('',0.509803950786591,0.509803950786591,0.588235318660736);
#192=AXIS2_PLACEMENT_3D('',#266,#267,#268);
#193=SURFACE_SIDE_STYLE('',(#269));
#194=DRAUGHTING_PRE_DEFINED_CURVE_FONT('continuous');
#195=COLOUR_RGB('',0.509803950786591,0.509803950786591,0.588235318660736);
#196=CARTESIAN_POINT('',(19.75,-2.4185975487992E-015,0.0));
#197=VECTOR('',#270,1.0);
#198=DRAUGHTING_PRE_DEFINED_CURVE_FONT('continuous');
#199=COLOUR_RGB('',0.509803950786591,0.509803950786591,0.588235318660736);
#200=AXIS2_PLACEMENT_3D('',#271,#272,#273);
#201=SURFACE_SIDE_STYLE('',(#274));
#202=EDGE_LOOP('',(#275,#276,#277,#278));
#203=AXIS2_PLACEMENT_3D('',#279,#280,#281);
#204=SURFACE_SIDE_STYLE('',(#282));
#205=EDGE_LOOP('',(#283,#284));
#206=EDGE_LOOP('',(#285,#286));
#207=AXIS2_PLACEMENT_3D('',#287,#288,#289);
#208=DRAUGHTING_PRE_DEFINED_CURVE_FONT('continuous');
#209=COLOUR_RGB('',0.509803950786591,0.509803950786591,0.588235318660736);
#210=AXIS2_PLACEMENT_3D('',#290,#291,#292);
#211=PRE_DEFINED_MARKER('');
#212=COLOUR_RGB('',0.509803950786591,0.509803950786591,0.588235318660736);
#213=DRAUGHTING_PRE_DEFINED_CURVE_FONT('continuous');
#214=COLOUR_RGB('',0.509803950786591,0.509803950786591,0.588235318660736);
#215=AXIS2_PLACEMENT_3D('',#293,#294,#295);
#216=SURFACE_SIDE_STYLE('',(#296));
#217=EDGE_LOOP('',(#297,#298,#299,#300));
#218=AXIS2_PLACEMENT_3D('',#301,#302,#303);
#219=SURFACE_SIDE_STYLE('',(#304));
#220=EDGE_LOOP('',(#305,#306,#307,#308));
#221=AXIS2_PLACEMENT_3D('',#309,#310,#311);
#222=DRAUGHTING_PRE_DEFINED_CURVE_FONT('continuous');
#223=COLOUR_RGB('',0.509803950786591,0.509803950786591,0.588235318660736);
#224=CARTESIAN_POINT('',(6.5,-7.95994129984545E-016,0.0));
#225=VECTOR('',#312,1.0);
#226=PRE_DEFINED_MARKER('');
#227=COLOUR_RGB('',0.509803950786591,0.509803950786591,0.588235318660736);
#228=DRAUGHTING_PRE_DEFINED_CURVE_FONT('continuous');
#229=COLOUR_RGB('',0.509803950786591,0.509803950786591,0.588235318660736);
#230=AXIS2_PLACEMENT_3D('',#313,#314,#315);
#231=SURFACE_SIDE_STYLE('',(#316));
#232=EDGE_LOOP('',(#317,#318,#319,#320));
#233=AXIS2_PLACEMENT_3D('',#321,#322,#323);
#234=SURFACE_SIDE_STYLE('',(#324));
#235=EDGE_LOOP('',(#325,#326));
#236=EDGE_LOOP('',(#327,#328));
#237=AXIS2_PLACEMENT_3D('',#329,#330,#331);
#238=DRAUGHTING_PRE_DEFINED_CURVE_FONT('continuous');
#239=COLOUR_RGB('',0.509803950786591,0.509803950786591,0.588235318660736);
#240=AXIS2_PLACEMENT_3D('',#332,#333,#334);
#241=DRAUGHTING_PRE_DEFINED_CURVE_FONT('continuous');
#242=COLOUR_RGB('',0.509803950786591,0.509803950786591,0.588235318660736);
#243=CARTESIAN_POINT('',(-6.5,7.95994129984545E-016,0.0));
#244=VECTOR('',#335,1.0);
#245=PRE_DEFINED_MARKER('');
#246=COLOUR_RGB('',0.509803950786591,0.509803950786591,0.588235318660736);
#247=DRAUGHTING_PRE_DEFINED_CURVE_FONT('continuous');
#248=COLOUR_RGB('',0.509803950786591,0.509803950786591,0.588235318660736);
#249=CARTESIAN_POINT('',(-19.75,2.4185975487992E-015,0.0));
#250=VECTOR('',#336,1.0);
#251=PRE_DEFINED_MARKER('');
#252=COLOUR_RGB('',0.509803950786591,0.509803950786591,0.588235318660736);
#253=PRE_DEFINED_MARKER('');
#254=COLOUR_RGB('',0.509803950786591,0.509803950786591,0.588235318660736);
#255=PRE_DEFINED_MARKER('');
#256=COLOUR_RGB('',0.509803950786591,0.509803950786591,0.588235318660736);
#257=DRAUGHTING_PRE_DEFINED_CURVE_FONT('continuous');
#258=COLOUR_RGB('',0.509803950786591,0.509803950786591,0.588235318660736);
#259=AXIS2_PLACEMENT_3D('',#337,#338,#339);
#260=PRE_DEFINED_MARKER('');
#261=COLOUR_RGB('',0.509803950786591,0.509803950786591,0.588235318660736);
#262=DRAUGHTING_PRE_DEFINED_CURVE_FONT('continuous');
#263=COLOUR_RGB('',0.509803950786591,0.509803950786591,0.588235318660736);
#264=AXIS2_PLACEMENT_3D('',#340,#341,#342);
#266=CARTESIAN_POINT('',(0.0,0.0,0.0));
#267=DIRECTION('',(0.0,0.0,1.0));
#268=DIRECTION('',(1.0,0.0,0.0));
#269=SURFACE_STYLE_FILL_AREA(#343);
#270=DIRECTION('',(0.0,0.0,1.0));
#271=CARTESIAN_POINT('',(0.0,0.0,5.0));
#272=DIRECTION('',(0.0,0.0,-1.0));
#273=DIRECTION('',(-1.0,0.0,0.0));
#274=SURFACE_STYLE_FILL_AREA(#344);
#275=ORIENTED_EDGE('',*,*,#57,.F.);
#276=ORIENTED_EDGE('',*,*,#99,.T.);
#277=ORIENTED_EDGE('',*,*,#91,.F.);
#278=ORIENTED_EDGE('',*,*,#103,.T.);
#279=CARTESIAN_POINT('',(0.0,0.0,0.0));
#280=DIRECTION('',(-0.0,-0.0,-1.0));
#281=DIRECTION('',(1.0,0.0,0.0));
#282=SURFACE_STYLE_FILL_AREA(#345);
#283=ORIENTED_EDGE('',*,*,#85,.T.);
#284=ORIENTED_EDGE('',*,*,#79,.T.);
#285=ORIENTED_EDGE('',*,*,#99,.F.);
#286=ORIENTED_EDGE('',*,*,#53,.F.);
#287=CARTESIAN_POINT('',(0.0,0.0,0.0));
#288=DIRECTION('',(0.0,0.0,1.0));
#289=DIRECTION('',(1.0,0.0,0.0));
#290=CARTESIAN_POINT('',(0.0,0.0,5.0));
#291=DIRECTION('',(0.0,0.0,-1.0));
#292=DIRECTION('',(1.0,0.0,0.0));
#293=CARTESIAN_POINT('',(0.0,0.0,5.0));
#294=DIRECTION('',(0.0,0.0,-1.0));
#295=DIRECTION('',(1.0,0.0,0.0));
#296=SURFACE_STYLE_FILL_AREA(#346);
#297=ORIENTED_EDGE('',*,*,#57,.T.);
#298=ORIENTED_EDGE('',*,*,#59,.T.);
#299=ORIENTED_EDGE('',*,*,#91,.T.);
#300=ORIENTED_EDGE('',*,*,#53,.T.);
#301=CARTESIAN_POINT('',(0.0,0.0,0.0));
#302=DIRECTION('',(-0.0,-0.0,-1.0));
#303=DIRECTION('',(1.0,0.0,0.0));
#304=SURFACE_STYLE_FILL_AREA(#347);
#305=ORIENTED_EDGE('',*,*,#75,.T.);
#306=ORIENTED_EDGE('',*,*,#79,.F.);
#307=ORIENTED_EDGE('',*,*,#87,.T.);
#308=ORIENTED_EDGE('',*,*,#69,.F.);
#309=CARTESIAN_POINT('',(0.0,0.0,0.0));
#310=DIRECTION('',(-0.0,-0.0,-1.0));
#311=DIRECTION('',(1.0,0.0,0.0));
#312=DIRECTION('',(-0.0,0.0,-1.0));
#313=CARTESIAN_POINT('',(0.0,0.0,0.0));
#314=DIRECTION('',(0.0,0.0,1.0));
#315=DIRECTION('',(1.0,0.0,0.0));
#316=SURFACE_STYLE_FILL_AREA(#348);
#317=ORIENTED_EDGE('',*,*,#75,.F.);
#318=ORIENTED_EDGE('',*,*,#65,.F.);
#319=ORIENTED_EDGE('',*,*,#87,.F.);
#320=ORIENTED_EDGE('',*,*,#85,.F.);
#321=CARTESIAN_POINT('',(0.0,0.0,0.0));
#322=DIRECTION('',(-0.0,-0.0,-1.0));
#323=DIRECTION('',(1.0,0.0,0.0));
#324=SURFACE_STYLE_FILL_AREA(#349);
#325=ORIENTED_EDGE('',*,*,#65,.T.);
#326=ORIENTED_EDGE('',*,*,#69,.T.);
#327=ORIENTED_EDGE('',*,*,#103,.F.);
#328=ORIENTED_EDGE('',*,*,#59,.F.);
#329=CARTESIAN_POINT('',(0.0,0.0,5.0));
#330=DIRECTION('',(0.0,0.0,1.0));
#331=DIRECTION('',(1.0,0.0,0.0));
#332=CARTESIAN_POINT('',(0.0,0.0,0.0));
#333=DIRECTION('',(0.0,0.0,1.0));
#334=DIRECTION('',(1.0,0.0,0.0));
#335=DIRECTION('',(-0.0,0.0,1.0));
#336=DIRECTION('',(-0.0,-0.0,-1.0));
#337=CARTESIAN_POINT('',(0.0,0.0,0.0));
#338=DIRECTION('',(0.0,0.0,1.0));
#339=DIRECTION('',(1.0,0.0,0.0));
#340=CARTESIAN_POINT('',(0.0,0.0,5.0));
#341=DIRECTION('',(0.0,0.0,-1.0));
#342=DIRECTION('',(-1.0,0.0,0.0));
#343=FILL_AREA_STYLE('',(#350));
#344=FILL_AREA_STYLE('',(#351));
#345=FILL_AREA_STYLE('',(#352));
#346=FILL_AREA_STYLE('',(#353));
#347=FILL_AREA_STYLE('',(#354));
#348=FILL_AREA_STYLE('',(#355));
#349=FILL_AREA_STYLE('',(#356));
#350=FILL_AREA_STYLE_COLOUR('',#357);
#351=FILL_AREA_STYLE_COLOUR('',#358);
#352=FILL_AREA_STYLE_COLOUR('',#359);
#353=FILL_AREA_STYLE_COLOUR('',#360);
#354=FILL_AREA_STYLE_COLOUR('',#361);
#355=FILL_AREA_STYLE_COLOUR('',#362);
#356=FILL_AREA_STYLE_COLOUR('',#363);
#357=COLOUR_RGB('',0.509803950786591,0.509803950786591,0.588235318660736);
#358=COLOUR_RGB('',0.509803950786591,0.509803950786591,0.588235318660736);
#359=COLOUR_RGB('',0.509803950786591,0.509803950786591,0.588235318660736);
#360=COLOUR_RGB('',0.509803950786591,0.509803950786591,0.588235318660736);
#361=COLOUR_RGB('',0.509803950786591,0.509803950786591,0.588235318660736);
#362=COLOUR_RGB('',0.509803950786591,0.509803950786591,0.588235318660736);
#363=COLOUR_RGB('',0.509803950786591,0.509803950786591,0.588235318660736);
ENDSEC;
END-ISO-10303-21;
