ISO-10303-21;
HEADER;
FILE_DESCRIPTION(('STEP AP214'),'1');
FILE_NAME(' ','  ',('TraceParts'),('TraceParts S.A.'),'XStep 1.0',' ',' ');
FILE_SCHEMA(('automotive_design'));
ENDSEC;
DATA;
#1=MECHANICAL_DESIGN_GEOMETRIC_PRESENTATION_REPRESENTATION(' ',(#10,#11,#12,#13,#14,#15,#16,#17,#18,#19,#20,#21,#22,#23,#24,#25,#26,#27,#28,#29,#30,#31,#32,#33,#34,#35,#36),#6);
#2=PRODUCT_DEFINITION_CONTEXT('',#37,'design');
#3=APPLICATION_PROTOCOL_DEFINITION('INTERNATIONAL STANDARD','automotive_design',1994,#37);
#4=PRODUCT_CATEGORY_RELATIONSHIP('NONE','NONE',#38,#39);
#5=SHAPE_DEFINITION_REPRESENTATION(#40,#41);
#6= (GEOMETRIC_REPRESENTATION_CONTEXT(3)GLOBAL_UNCERTAINTY_ASSIGNED_CONTEXT((#44))GLOBAL_UNIT_ASSIGNED_CONTEXT((#46,#47,#48))REPRESENTATION_CONTEXT('NONE','WORKSPACE'));
#10=STYLED_ITEM('',(#50),#51);
#11=STYLED_ITEM('',(#52),#53);
#12=STYLED_ITEM('',(#54),#55);
#13=STYLED_ITEM('',(#56),#57);
#14=STYLED_ITEM('',(#58),#59);
#15=STYLED_ITEM('',(#60),#61);
#16=STYLED_ITEM('',(#62),#63);
#17=STYLED_ITEM('',(#64),#65);
#18=STYLED_ITEM('',(#66),#67);
#19=STYLED_ITEM('',(#68),#69);
#20=STYLED_ITEM('',(#70),#71);
#21=STYLED_ITEM('',(#72),#73);
#22=STYLED_ITEM('',(#74),#75);
#23=STYLED_ITEM('',(#76),#77);
#24=STYLED_ITEM('',(#78),#79);
#25=STYLED_ITEM('',(#80),#81);
#26=STYLED_ITEM('',(#82),#83);
#27=STYLED_ITEM('',(#84),#85);
#28=STYLED_ITEM('',(#86),#87);
#29=STYLED_ITEM('',(#88),#89);
#30=STYLED_ITEM('',(#90),#91);
#31=STYLED_ITEM('',(#92),#93);
#32=STYLED_ITEM('',(#94),#95);
#33=STYLED_ITEM('',(#96),#97);
#34=STYLED_ITEM('',(#98),#99);
#35=STYLED_ITEM('',(#100),#101);
#36=STYLED_ITEM('',(#102),#103);
#37=APPLICATION_CONTEXT(' ');
#38=PRODUCT_CATEGORY('part','NONE');
#39=PRODUCT_RELATED_PRODUCT_CATEGORY('detail',' ',(#104));
#40=PRODUCT_DEFINITION_SHAPE('NONE','NONE',#105);
#41=ADVANCED_BREP_SHAPE_REPRESENTATION('1',(#103,#106),#6);
#44=UNCERTAINTY_MEASURE_WITH_UNIT(LENGTH_MEASURE(1.0E-006),#46,'','');
#46= (CONVERSION_BASED_UNIT('MILLIMETRE',#109)LENGTH_UNIT()NAMED_UNIT(#112));
#47= (NAMED_UNIT(#114)PLANE_ANGLE_UNIT()SI_UNIT($,.RADIAN.));
#48= (NAMED_UNIT(#114)SOLID_ANGLE_UNIT()SI_UNIT($,.STERADIAN.));
#50=PRESENTATION_STYLE_ASSIGNMENT((#120));
#51=VERTEX_POINT('',#121);
#52=PRESENTATION_STYLE_ASSIGNMENT((#122));
#53=ADVANCED_FACE('',(#123),#124,.F.);
#54=PRESENTATION_STYLE_ASSIGNMENT((#125));
#55=EDGE_CURVE('',#79,#67,#126,.T.);
#56=PRESENTATION_STYLE_ASSIGNMENT((#127));
#57=ADVANCED_FACE('',(#128,#129),#130,.T.);
#58=PRESENTATION_STYLE_ASSIGNMENT((#131));
#59=EDGE_CURVE('',#67,#69,#132,.T.);
#60=PRESENTATION_STYLE_ASSIGNMENT((#133));
#61=EDGE_CURVE('',#97,#87,#134,.T.);
#62=PRESENTATION_STYLE_ASSIGNMENT((#135));
#63=EDGE_CURVE('',#69,#85,#136,.T.);
#64=PRESENTATION_STYLE_ASSIGNMENT((#137));
#65=ADVANCED_FACE('',(#138,#139),#140,.F.);
#66=PRESENTATION_STYLE_ASSIGNMENT((#141));
#67=VERTEX_POINT('',#142);
#68=PRESENTATION_STYLE_ASSIGNMENT((#143));
#69=VERTEX_POINT('',#144);
#70=PRESENTATION_STYLE_ASSIGNMENT((#145));
#71=EDGE_CURVE('',#97,#51,#146,.T.);
#72=PRESENTATION_STYLE_ASSIGNMENT((#147));
#73=ADVANCED_FACE('',(#148),#149,.F.);
#74=PRESENTATION_STYLE_ASSIGNMENT((#150));
#75=EDGE_CURVE('',#51,#97,#151,.T.);
#76=PRESENTATION_STYLE_ASSIGNMENT((#152));
#77=EDGE_CURVE('',#85,#79,#153,.T.);
#78=PRESENTATION_STYLE_ASSIGNMENT((#154));
#79=VERTEX_POINT('',#155);
#80=PRESENTATION_STYLE_ASSIGNMENT((#156));
#81=EDGE_CURVE('',#67,#79,#157,.T.);
#82=PRESENTATION_STYLE_ASSIGNMENT((#158));
#83=EDGE_CURVE('',#101,#87,#159,.T.);
#84=PRESENTATION_STYLE_ASSIGNMENT((#160));
#85=VERTEX_POINT('',#161);
#86=PRESENTATION_STYLE_ASSIGNMENT((#162));
#87=VERTEX_POINT('',#163);
#88=PRESENTATION_STYLE_ASSIGNMENT((#164));
#89=ADVANCED_FACE('',(#165),#166,.T.);
#90=PRESENTATION_STYLE_ASSIGNMENT((#167));
#91=ADVANCED_FACE('',(#168),#169,.T.);
#92=PRESENTATION_STYLE_ASSIGNMENT((#170));
#93=EDGE_CURVE('',#85,#69,#171,.T.);
#94=PRESENTATION_STYLE_ASSIGNMENT((#172));
#95=EDGE_CURVE('',#87,#101,#173,.T.);
#96=PRESENTATION_STYLE_ASSIGNMENT((#174));
#97=VERTEX_POINT('',#175);
#98=PRESENTATION_STYLE_ASSIGNMENT((#176));
#99=EDGE_CURVE('',#101,#51,#177,.T.);
#100=PRESENTATION_STYLE_ASSIGNMENT((#178));
#101=VERTEX_POINT('',#179);
#102=PRESENTATION_STYLE_ASSIGNMENT((#180));
#103=MANIFOLD_SOLID_BREP('1',#181);
#104=PRODUCT('1','1','PART-1-DESC',(#182));
#105=PRODUCT_DEFINITION('NONE','NONE',#183,#2);
#106=AXIS2_PLACEMENT_3D('',#184,#185,#186);
#109=LENGTH_MEASURE_WITH_UNIT(LENGTH_MEASURE(1.0),#187);
#112=DIMENSIONAL_EXPONENTS(1.0,0.0,0.0,0.0,0.0,0.0,0.0);
#114=DIMENSIONAL_EXPONENTS(0.0,0.0,0.0,0.0,0.0,0.0,0.0);
#120=POINT_STYLE(' ',#188,POSITIVE_LENGTH_MEASURE(1.0E-006),#189);
#121=CARTESIAN_POINT('',(-6.5,0.0,4.0));
#122=SURFACE_STYLE_USAGE(.BOTH.,#190);
#123=FACE_OUTER_BOUND('',#191,.T.);
#124=CYLINDRICAL_SURFACE('',#192,6.5);
#125=CURVE_STYLE('',#193,POSITIVE_LENGTH_MEASURE(1.0E-006),#194);
#126=CIRCLE('',#195,29.75);
#127=SURFACE_STYLE_USAGE(.BOTH.,#196);
#128=FACE_BOUND('',#197,.T.);
#129=FACE_OUTER_BOUND('',#198,.T.);
#130=PLANE('',#199);
#131=CURVE_STYLE('',#200,POSITIVE_LENGTH_MEASURE(1.0E-006),#201);
#132=LINE('',#202,#203);
#133=CURVE_STYLE('',#204,POSITIVE_LENGTH_MEASURE(1.0E-006),#205);
#134=LINE('',#206,#207);
#135=CURVE_STYLE('',#208,POSITIVE_LENGTH_MEASURE(1.0E-006),#209);
#136=CIRCLE('',#210,29.75);
#137=SURFACE_STYLE_USAGE(.BOTH.,#211);
#138=FACE_BOUND('',#212,.T.);
#139=FACE_OUTER_BOUND('',#213,.T.);
#140=PLANE('',#214);
#141=POINT_STYLE(' ',#215,POSITIVE_LENGTH_MEASURE(1.0E-006),#216);
#142=CARTESIAN_POINT('',(29.75,0.0,0.0));
#143=POINT_STYLE(' ',#217,POSITIVE_LENGTH_MEASURE(1.0E-006),#218);
#144=CARTESIAN_POINT('',(29.75,-3.64320390262157E-015,4.0));
#145=CURVE_STYLE('',#219,POSITIVE_LENGTH_MEASURE(1.0E-006),#220);
#146=CIRCLE('',#221,6.5);
#147=SURFACE_STYLE_USAGE(.BOTH.,#222);
#148=FACE_OUTER_BOUND('',#223,.T.);
#149=CYLINDRICAL_SURFACE('',#224,6.5);
#150=CURVE_STYLE('',#225,POSITIVE_LENGTH_MEASURE(1.0E-006),#226);
#151=CIRCLE('',#227,6.5);
#152=CURVE_STYLE('',#228,POSITIVE_LENGTH_MEASURE(1.0E-006),#229);
#153=LINE('',#230,#231);
#154=POINT_STYLE(' ',#232,POSITIVE_LENGTH_MEASURE(1.0E-006),#233);
#155=CARTESIAN_POINT('',(-29.75,3.64320390262157E-015,0.0));
#156=CURVE_STYLE('',#234,POSITIVE_LENGTH_MEASURE(1.0E-006),#235);
#157=CIRCLE('',#236,29.75);
#158=CURVE_STYLE('',#237,POSITIVE_LENGTH_MEASURE(1.0E-006),#238);
#159=CIRCLE('',#239,6.5);
#160=POINT_STYLE(' ',#240,POSITIVE_LENGTH_MEASURE(1.0E-006),#241);
#161=CARTESIAN_POINT('',(-29.75,0.0,4.0));
#162=POINT_STYLE(' ',#242,POSITIVE_LENGTH_MEASURE(1.0E-006),#243);
#163=CARTESIAN_POINT('',(6.5,0.0,0.0));
#164=SURFACE_STYLE_USAGE(.BOTH.,#244);
#165=FACE_OUTER_BOUND('',#245,.T.);
#166=CYLINDRICAL_SURFACE('',#246,29.75);
#167=SURFACE_STYLE_USAGE(.BOTH.,#247);
#168=FACE_OUTER_BOUND('',#248,.T.);
#169=CYLINDRICAL_SURFACE('',#249,29.75);
#170=CURVE_STYLE('',#250,POSITIVE_LENGTH_MEASURE(1.0E-006),#251);
#171=CIRCLE('',#252,29.75);
#172=CURVE_STYLE('',#253,POSITIVE_LENGTH_MEASURE(1.0E-006),#254);
#173=CIRCLE('',#255,6.5);
#174=POINT_STYLE(' ',#256,POSITIVE_LENGTH_MEASURE(1.0E-006),#257);
#175=CARTESIAN_POINT('',(6.5,-7.95994129984545E-016,4.0));
#176=CURVE_STYLE('',#258,POSITIVE_LENGTH_MEASURE(1.0E-006),#259);
#177=LINE('',#260,#261);
#178=POINT_STYLE(' ',#262,POSITIVE_LENGTH_MEASURE(1.0E-006),#263);
#179=CARTESIAN_POINT('',(-6.5,7.95994129984545E-016,0.0));
#180=SURFACE_STYLE_USAGE(.BOTH.,#264);
#181=CLOSED_SHELL('',(#91,#73,#53,#89,#65,#57));
#182=PRODUCT_CONTEXT('',#37,'mechanical');
#183=PRODUCT_DEFINITION_FORMATION_WITH_SPECIFIED_SOURCE(' ','NONE',#104,.NOT_KNOWN.);
#184=CARTESIAN_POINT('',(0.0,0.0,0.0));
#185=DIRECTION('',(0.0,0.0,1.0));
#186=DIRECTION('',(1.0,0.0,0.0));
#187= (NAMED_UNIT(#112)LENGTH_UNIT()SI_UNIT(.MILLI.,.METRE.));
#188=PRE_DEFINED_MARKER('');
#189=COLOUR_RGB('',0.509803950786591,0.509803950786591,0.588235318660736);
#190=SURFACE_SIDE_STYLE('',(#266));
#191=EDGE_LOOP('',(#267,#268,#269,#270));
#192=AXIS2_PLACEMENT_3D('',#271,#272,#273);
#193=DRAUGHTING_PRE_DEFINED_CURVE_FONT('continuous');
#194=COLOUR_RGB('',0.509803950786591,0.509803950786591,0.588235318660736);
#195=AXIS2_PLACEMENT_3D('',#274,#275,#276);
#196=SURFACE_SIDE_STYLE('',(#277));
#197=EDGE_LOOP('',(#278,#279));
#198=EDGE_LOOP('',(#280,#281));
#199=AXIS2_PLACEMENT_3D('',#282,#283,#284);
#200=DRAUGHTING_PRE_DEFINED_CURVE_FONT('continuous');
#201=COLOUR_RGB('',0.509803950786591,0.509803950786591,0.588235318660736);
#202=CARTESIAN_POINT('',(29.75,-3.64320390262157E-015,0.0));
#203=VECTOR('',#285,1.0);
#204=DRAUGHTING_PRE_DEFINED_CURVE_FONT('continuous');
#205=COLOUR_RGB('',0.509803950786591,0.509803950786591,0.588235318660736);
#206=CARTESIAN_POINT('',(6.5,-7.95994129984545E-016,0.0));
#207=VECTOR('',#286,1.0);
#208=DRAUGHTING_PRE_DEFINED_CURVE_FONT('continuous');
#209=COLOUR_RGB('',0.509803950786591,0.509803950786591,0.588235318660736);
#210=AXIS2_PLACEMENT_3D('',#287,#288,#289);
#211=SURFACE_SIDE_STYLE('',(#290));
#212=EDGE_LOOP('',(#291,#292));
#213=EDGE_LOOP('',(#293,#294));
#214=AXIS2_PLACEMENT_3D('',#295,#296,#297);
#215=PRE_DEFINED_MARKER('');
#216=COLOUR_RGB('',0.509803950786591,0.509803950786591,0.588235318660736);
#217=PRE_DEFINED_MARKER('');
#218=COLOUR_RGB('',0.509803950786591,0.509803950786591,0.588235318660736);
#219=DRAUGHTING_PRE_DEFINED_CURVE_FONT('continuous');
#220=COLOUR_RGB('',0.509803950786591,0.509803950786591,0.588235318660736);
#221=AXIS2_PLACEMENT_3D('',#298,#299,#300);
#222=SURFACE_SIDE_STYLE('',(#301));
#223=EDGE_LOOP('',(#302,#303,#304,#305));
#224=AXIS2_PLACEMENT_3D('',#306,#307,#308);
#225=DRAUGHTING_PRE_DEFINED_CURVE_FONT('continuous');
#226=COLOUR_RGB('',0.509803950786591,0.509803950786591,0.588235318660736);
#227=AXIS2_PLACEMENT_3D('',#309,#310,#311);
#228=DRAUGHTING_PRE_DEFINED_CURVE_FONT('continuous');
#229=COLOUR_RGB('',0.509803950786591,0.509803950786591,0.588235318660736);
#230=CARTESIAN_POINT('',(-29.75,3.64320390262157E-015,0.0));
#231=VECTOR('',#312,1.0);
#232=PRE_DEFINED_MARKER('');
#233=COLOUR_RGB('',0.509803950786591,0.509803950786591,0.588235318660736);
#234=DRAUGHTING_PRE_DEFINED_CURVE_FONT('continuous');
#235=COLOUR_RGB('',0.509803950786591,0.509803950786591,0.588235318660736);
#236=AXIS2_PLACEMENT_3D('',#313,#314,#315);
#237=DRAUGHTING_PRE_DEFINED_CURVE_FONT('continuous');
#238=COLOUR_RGB('',0.509803950786591,0.509803950786591,0.588235318660736);
#239=AXIS2_PLACEMENT_3D('',#316,#317,#318);
#240=PRE_DEFINED_MARKER('');
#241=COLOUR_RGB('',0.509803950786591,0.509803950786591,0.588235318660736);
#242=PRE_DEFINED_MARKER('');
#243=COLOUR_RGB('',0.509803950786591,0.509803950786591,0.588235318660736);
#244=SURFACE_SIDE_STYLE('',(#319));
#245=EDGE_LOOP('',(#320,#321,#322,#323));
#246=AXIS2_PLACEMENT_3D('',#324,#325,#326);
#247=SURFACE_SIDE_STYLE('',(#327));
#248=EDGE_LOOP('',(#328,#329,#330,#331));
#249=AXIS2_PLACEMENT_3D('',#332,#333,#334);
#250=DRAUGHTING_PRE_DEFINED_CURVE_FONT('continuous');
#251=COLOUR_RGB('',0.509803950786591,0.509803950786591,0.588235318660736);
#252=AXIS2_PLACEMENT_3D('',#335,#336,#337);
#253=DRAUGHTING_PRE_DEFINED_CURVE_FONT('continuous');
#254=COLOUR_RGB('',0.509803950786591,0.509803950786591,0.588235318660736);
#255=AXIS2_PLACEMENT_3D('',#338,#339,#340);
#256=PRE_DEFINED_MARKER('');
#257=COLOUR_RGB('',0.509803950786591,0.509803950786591,0.588235318660736);
#258=DRAUGHTING_PRE_DEFINED_CURVE_FONT('continuous');
#259=COLOUR_RGB('',0.509803950786591,0.509803950786591,0.588235318660736);
#260=CARTESIAN_POINT('',(-6.5,7.95994129984545E-016,0.0));
#261=VECTOR('',#341,1.0);
#262=PRE_DEFINED_MARKER('');
#263=COLOUR_RGB('',0.509803950786591,0.509803950786591,0.588235318660736);
#264=SURFACE_SIDE_STYLE('',(#342));
#266=SURFACE_STYLE_FILL_AREA(#343);
#267=ORIENTED_EDGE('',*,*,#61,.T.);
#268=ORIENTED_EDGE('',*,*,#83,.F.);
#269=ORIENTED_EDGE('',*,*,#99,.T.);
#270=ORIENTED_EDGE('',*,*,#71,.F.);
#271=CARTESIAN_POINT('',(0.0,0.0,0.0));
#272=DIRECTION('',(-0.0,-0.0,-1.0));
#273=DIRECTION('',(1.0,0.0,0.0));
#274=CARTESIAN_POINT('',(0.0,0.0,0.0));
#275=DIRECTION('',(0.0,0.0,1.0));
#276=DIRECTION('',(1.0,0.0,0.0));
#277=SURFACE_STYLE_FILL_AREA(#344);
#278=ORIENTED_EDGE('',*,*,#75,.T.);
#279=ORIENTED_EDGE('',*,*,#71,.T.);
#280=ORIENTED_EDGE('',*,*,#93,.F.);
#281=ORIENTED_EDGE('',*,*,#63,.F.);
#282=CARTESIAN_POINT('',(0.0,0.0,4.0));
#283=DIRECTION('',(0.0,0.0,1.0));
#284=DIRECTION('',(1.0,0.0,0.0));
#285=DIRECTION('',(0.0,0.0,1.0));
#286=DIRECTION('',(-0.0,0.0,-1.0));
#287=CARTESIAN_POINT('',(0.0,0.0,4.0));
#288=DIRECTION('',(0.0,0.0,-1.0));
#289=DIRECTION('',(-1.0,0.0,0.0));
#290=SURFACE_STYLE_FILL_AREA(#345);
#291=ORIENTED_EDGE('',*,*,#95,.T.);
#292=ORIENTED_EDGE('',*,*,#83,.T.);
#293=ORIENTED_EDGE('',*,*,#81,.F.);
#294=ORIENTED_EDGE('',*,*,#55,.F.);
#295=CARTESIAN_POINT('',(0.0,0.0,0.0));
#296=DIRECTION('',(0.0,0.0,1.0));
#297=DIRECTION('',(1.0,0.0,0.0));
#298=CARTESIAN_POINT('',(0.0,0.0,4.0));
#299=DIRECTION('',(0.0,0.0,-1.0));
#300=DIRECTION('',(1.0,0.0,0.0));
#301=SURFACE_STYLE_FILL_AREA(#346);
#302=ORIENTED_EDGE('',*,*,#61,.F.);
#303=ORIENTED_EDGE('',*,*,#75,.F.);
#304=ORIENTED_EDGE('',*,*,#99,.F.);
#305=ORIENTED_EDGE('',*,*,#95,.F.);
#306=CARTESIAN_POINT('',(0.0,0.0,0.0));
#307=DIRECTION('',(-0.0,-0.0,-1.0));
#308=DIRECTION('',(1.0,0.0,0.0));
#309=CARTESIAN_POINT('',(0.0,0.0,4.0));
#310=DIRECTION('',(0.0,0.0,-1.0));
#311=DIRECTION('',(1.0,0.0,0.0));
#312=DIRECTION('',(-0.0,-0.0,-1.0));
#313=CARTESIAN_POINT('',(0.0,0.0,0.0));
#314=DIRECTION('',(0.0,0.0,1.0));
#315=DIRECTION('',(1.0,0.0,0.0));
#316=CARTESIAN_POINT('',(0.0,0.0,0.0));
#317=DIRECTION('',(0.0,0.0,1.0));
#318=DIRECTION('',(1.0,0.0,0.0));
#319=SURFACE_STYLE_FILL_AREA(#347);
#320=ORIENTED_EDGE('',*,*,#59,.T.);
#321=ORIENTED_EDGE('',*,*,#63,.T.);
#322=ORIENTED_EDGE('',*,*,#77,.T.);
#323=ORIENTED_EDGE('',*,*,#55,.T.);
#324=CARTESIAN_POINT('',(0.0,0.0,0.0));
#325=DIRECTION('',(-0.0,-0.0,-1.0));
#326=DIRECTION('',(1.0,0.0,0.0));
#327=SURFACE_STYLE_FILL_AREA(#348);
#328=ORIENTED_EDGE('',*,*,#59,.F.);
#329=ORIENTED_EDGE('',*,*,#81,.T.);
#330=ORIENTED_EDGE('',*,*,#77,.F.);
#331=ORIENTED_EDGE('',*,*,#93,.T.);
#332=CARTESIAN_POINT('',(0.0,0.0,0.0));
#333=DIRECTION('',(-0.0,-0.0,-1.0));
#334=DIRECTION('',(1.0,0.0,0.0));
#335=CARTESIAN_POINT('',(0.0,0.0,4.0));
#336=DIRECTION('',(0.0,0.0,-1.0));
#337=DIRECTION('',(-1.0,0.0,0.0));
#338=CARTESIAN_POINT('',(0.0,0.0,0.0));
#339=DIRECTION('',(0.0,0.0,1.0));
#340=DIRECTION('',(1.0,0.0,0.0));
#341=DIRECTION('',(-0.0,0.0,1.0));
#342=SURFACE_STYLE_FILL_AREA(#349);
#343=FILL_AREA_STYLE('',(#350));
#344=FILL_AREA_STYLE('',(#351));
#345=FILL_AREA_STYLE('',(#352));
#346=FILL_AREA_STYLE('',(#353));
#347=FILL_AREA_STYLE('',(#354));
#348=FILL_AREA_STYLE('',(#355));
#349=FILL_AREA_STYLE('',(#356));
#350=FILL_AREA_STYLE_COLOUR('',#357);
#351=FILL_AREA_STYLE_COLOUR('',#358);
#352=FILL_AREA_STYLE_COLOUR('',#359);
#353=FILL_AREA_STYLE_COLOUR('',#360);
#354=FILL_AREA_STYLE_COLOUR('',#361);
#355=FILL_AREA_STYLE_COLOUR('',#362);
#356=FILL_AREA_STYLE_COLOUR('',#363);
#357=COLOUR_RGB('',0.509803950786591,0.509803950786591,0.588235318660736);
#358=COLOUR_RGB('',0.509803950786591,0.509803950786591,0.588235318660736);
#359=COLOUR_RGB('',0.509803950786591,0.509803950786591,0.588235318660736);
#360=COLOUR_RGB('',0.509803950786591,0.509803950786591,0.588235318660736);
#361=COLOUR_RGB('',0.509803950786591,0.509803950786591,0.588235318660736);
#362=COLOUR_RGB('',0.509803950786591,0.509803950786591,0.588235318660736);
#363=COLOUR_RGB('',0.509803950786591,0.509803950786591,0.588235318660736);
ENDSEC;
END-ISO-10303-21;
