ISO-10303-21;
HEADER;
FILE_DESCRIPTION(('STEP AP214'),'1');
FILE_NAME(' ','  ',('TraceParts'),('TraceParts S.A.'),'XStep 1.0',' ',' ');
FILE_SCHEMA(('automotive_design'));
ENDSEC;
DATA;
#1=MECHANICAL_DESIGN_GEOMETRIC_PRESENTATION_REPRESENTATION(' ',(#10,#11,#12,#13,#14,#15,#16,#17,#18,#19,#20,#21,#22,#23,#24,#25,#26,#27,#28,#29,#30,#31,#32,#33,#34,#35,#36),#6);
#2=PRODUCT_DEFINITION_CONTEXT('',#37,'design');
#3=APPLICATION_PROTOCOL_DEFINITION('INTERNATIONAL STANDARD','automotive_design',1994,#37);
#4=PRODUCT_CATEGORY_RELATIONSHIP('NONE','NONE',#38,#39);
#5=SHAPE_DEFINITION_REPRESENTATION(#40,#41);
#6= (GEOMETRIC_REPRESENTATION_CONTEXT(3)GLOBAL_UNCERTAINTY_ASSIGNED_CONTEXT((#44))GLOBAL_UNIT_ASSIGNED_CONTEXT((#46,#47,#48))REPRESENTATION_CONTEXT('NONE','WORKSPACE'));
#10=STYLED_ITEM('',(#50),#51);
#11=STYLED_ITEM('',(#52),#53);
#12=STYLED_ITEM('',(#54),#55);
#13=STYLED_ITEM('',(#56),#57);
#14=STYLED_ITEM('',(#58),#59);
#15=STYLED_ITEM('',(#60),#61);
#16=STYLED_ITEM('',(#62),#63);
#17=STYLED_ITEM('',(#64),#65);
#18=STYLED_ITEM('',(#66),#67);
#19=STYLED_ITEM('',(#68),#69);
#20=STYLED_ITEM('',(#70),#71);
#21=STYLED_ITEM('',(#72),#73);
#22=STYLED_ITEM('',(#74),#75);
#23=STYLED_ITEM('',(#76),#77);
#24=STYLED_ITEM('',(#78),#79);
#25=STYLED_ITEM('',(#80),#81);
#26=STYLED_ITEM('',(#82),#83);
#27=STYLED_ITEM('',(#84),#85);
#28=STYLED_ITEM('',(#86),#87);
#29=STYLED_ITEM('',(#88),#89);
#30=STYLED_ITEM('',(#90),#91);
#31=STYLED_ITEM('',(#92),#93);
#32=STYLED_ITEM('',(#94),#95);
#33=STYLED_ITEM('',(#96),#97);
#34=STYLED_ITEM('',(#98),#99);
#35=STYLED_ITEM('',(#100),#101);
#36=STYLED_ITEM('',(#102),#103);
#37=APPLICATION_CONTEXT(' ');
#38=PRODUCT_CATEGORY('part','NONE');
#39=PRODUCT_RELATED_PRODUCT_CATEGORY('detail',' ',(#104));
#40=PRODUCT_DEFINITION_SHAPE('NONE','NONE',#105);
#41=ADVANCED_BREP_SHAPE_REPRESENTATION('1',(#69,#106),#6);
#44=UNCERTAINTY_MEASURE_WITH_UNIT(LENGTH_MEASURE(1.0E-006),#46,'','');
#46= (CONVERSION_BASED_UNIT('MILLIMETRE',#109)LENGTH_UNIT()NAMED_UNIT(#112));
#47= (NAMED_UNIT(#114)PLANE_ANGLE_UNIT()SI_UNIT($,.RADIAN.));
#48= (NAMED_UNIT(#114)SOLID_ANGLE_UNIT()SI_UNIT($,.STERADIAN.));
#50=PRESENTATION_STYLE_ASSIGNMENT((#120));
#51=EDGE_CURVE('',#65,#59,#121,.T.);
#52=PRESENTATION_STYLE_ASSIGNMENT((#122));
#53=ADVANCED_FACE('',(#123),#124,.T.);
#54=PRESENTATION_STYLE_ASSIGNMENT((#125));
#55=EDGE_CURVE('',#83,#67,#126,.T.);
#56=PRESENTATION_STYLE_ASSIGNMENT((#127));
#57=EDGE_CURVE('',#75,#89,#128,.T.);
#58=PRESENTATION_STYLE_ASSIGNMENT((#129));
#59=VERTEX_POINT('',#130);
#60=PRESENTATION_STYLE_ASSIGNMENT((#131));
#61=ADVANCED_FACE('',(#132),#133,.F.);
#62=PRESENTATION_STYLE_ASSIGNMENT((#134));
#63=ADVANCED_FACE('',(#135,#136),#137,.T.);
#64=PRESENTATION_STYLE_ASSIGNMENT((#138));
#65=VERTEX_POINT('',#139);
#66=PRESENTATION_STYLE_ASSIGNMENT((#140));
#67=VERTEX_POINT('',#141);
#68=PRESENTATION_STYLE_ASSIGNMENT((#142));
#69=MANIFOLD_SOLID_BREP('1',#143);
#70=PRESENTATION_STYLE_ASSIGNMENT((#144));
#71=EDGE_CURVE('',#95,#59,#145,.T.);
#72=PRESENTATION_STYLE_ASSIGNMENT((#146));
#73=ADVANCED_FACE('',(#147),#148,.F.);
#74=PRESENTATION_STYLE_ASSIGNMENT((#149));
#75=VERTEX_POINT('',#150);
#76=PRESENTATION_STYLE_ASSIGNMENT((#151));
#77=VERTEX_POINT('',#152);
#78=PRESENTATION_STYLE_ASSIGNMENT((#153));
#79=EDGE_CURVE('',#67,#83,#154,.T.);
#80=PRESENTATION_STYLE_ASSIGNMENT((#155));
#81=ADVANCED_FACE('',(#156,#157),#158,.F.);
#82=PRESENTATION_STYLE_ASSIGNMENT((#159));
#83=VERTEX_POINT('',#160);
#84=PRESENTATION_STYLE_ASSIGNMENT((#161));
#85=EDGE_CURVE('',#89,#75,#162,.T.);
#86=PRESENTATION_STYLE_ASSIGNMENT((#163));
#87=EDGE_CURVE('',#77,#95,#164,.T.);
#88=PRESENTATION_STYLE_ASSIGNMENT((#165));
#89=VERTEX_POINT('',#166);
#90=PRESENTATION_STYLE_ASSIGNMENT((#167));
#91=EDGE_CURVE('',#89,#83,#168,.T.);
#92=PRESENTATION_STYLE_ASSIGNMENT((#169));
#93=EDGE_CURVE('',#65,#77,#170,.T.);
#94=PRESENTATION_STYLE_ASSIGNMENT((#171));
#95=VERTEX_POINT('',#172);
#96=PRESENTATION_STYLE_ASSIGNMENT((#173));
#97=EDGE_CURVE('',#59,#65,#174,.T.);
#98=PRESENTATION_STYLE_ASSIGNMENT((#175));
#99=EDGE_CURVE('',#67,#75,#176,.T.);
#100=PRESENTATION_STYLE_ASSIGNMENT((#177));
#101=ADVANCED_FACE('',(#178),#179,.T.);
#102=PRESENTATION_STYLE_ASSIGNMENT((#180));
#103=EDGE_CURVE('',#95,#77,#181,.T.);
#104=PRODUCT('1','1','PART-1-DESC',(#182));
#105=PRODUCT_DEFINITION('NONE','NONE',#183,#2);
#106=AXIS2_PLACEMENT_3D('',#184,#185,#186);
#109=LENGTH_MEASURE_WITH_UNIT(LENGTH_MEASURE(1.0),#187);
#112=DIMENSIONAL_EXPONENTS(1.0,0.0,0.0,0.0,0.0,0.0,0.0);
#114=DIMENSIONAL_EXPONENTS(0.0,0.0,0.0,0.0,0.0,0.0,0.0);
#120=CURVE_STYLE('',#188,POSITIVE_LENGTH_MEASURE(1.0E-006),#189);
#121=CIRCLE('',#190,19.75);
#122=SURFACE_STYLE_USAGE(.BOTH.,#191);
#123=FACE_OUTER_BOUND('',#192,.T.);
#124=CYLINDRICAL_SURFACE('',#193,19.75);
#125=CURVE_STYLE('',#194,POSITIVE_LENGTH_MEASURE(1.0E-006),#195);
#126=CIRCLE('',#196,6.5);
#127=CURVE_STYLE('',#197,POSITIVE_LENGTH_MEASURE(1.0E-006),#198);
#128=CIRCLE('',#199,6.5);
#129=POINT_STYLE(' ',#200,POSITIVE_LENGTH_MEASURE(1.0E-006),#201);
#130=CARTESIAN_POINT('',(19.75,-2.4185975487992E-015,3.0));
#131=SURFACE_STYLE_USAGE(.BOTH.,#202);
#132=FACE_OUTER_BOUND('',#203,.T.);
#133=CYLINDRICAL_SURFACE('',#204,6.5);
#134=SURFACE_STYLE_USAGE(.BOTH.,#205);
#135=FACE_BOUND('',#206,.T.);
#136=FACE_OUTER_BOUND('',#207,.T.);
#137=PLANE('',#208);
#138=POINT_STYLE(' ',#209,POSITIVE_LENGTH_MEASURE(1.0E-006),#210);
#139=CARTESIAN_POINT('',(-19.75,0.0,3.0));
#140=POINT_STYLE(' ',#211,POSITIVE_LENGTH_MEASURE(1.0E-006),#212);
#141=CARTESIAN_POINT('',(-6.5,7.95994129984545E-016,0.0));
#142=SURFACE_STYLE_USAGE(.BOTH.,#213);
#143=CLOSED_SHELL('',(#53,#61,#73,#101,#81,#63));
#144=CURVE_STYLE('',#214,POSITIVE_LENGTH_MEASURE(1.0E-006),#215);
#145=LINE('',#216,#217);
#146=SURFACE_STYLE_USAGE(.BOTH.,#218);
#147=FACE_OUTER_BOUND('',#219,.T.);
#148=CYLINDRICAL_SURFACE('',#220,6.5);
#149=POINT_STYLE(' ',#221,POSITIVE_LENGTH_MEASURE(1.0E-006),#222);
#150=CARTESIAN_POINT('',(-6.5,0.0,3.0));
#151=POINT_STYLE(' ',#223,POSITIVE_LENGTH_MEASURE(1.0E-006),#224);
#152=CARTESIAN_POINT('',(-19.75,2.4185975487992E-015,0.0));
#153=CURVE_STYLE('',#225,POSITIVE_LENGTH_MEASURE(1.0E-006),#226);
#154=CIRCLE('',#227,6.5);
#155=SURFACE_STYLE_USAGE(.BOTH.,#228);
#156=FACE_BOUND('',#229,.T.);
#157=FACE_OUTER_BOUND('',#230,.T.);
#158=PLANE('',#231);
#159=POINT_STYLE(' ',#232,POSITIVE_LENGTH_MEASURE(1.0E-006),#233);
#160=CARTESIAN_POINT('',(6.5,0.0,0.0));
#161=CURVE_STYLE('',#234,POSITIVE_LENGTH_MEASURE(1.0E-006),#235);
#162=CIRCLE('',#236,6.5);
#163=CURVE_STYLE('',#237,POSITIVE_LENGTH_MEASURE(1.0E-006),#238);
#164=CIRCLE('',#239,19.75);
#165=POINT_STYLE(' ',#240,POSITIVE_LENGTH_MEASURE(1.0E-006),#241);
#166=CARTESIAN_POINT('',(6.5,-7.95994129984545E-016,3.0));
#167=CURVE_STYLE('',#242,POSITIVE_LENGTH_MEASURE(1.0E-006),#243);
#168=LINE('',#244,#245);
#169=CURVE_STYLE('',#246,POSITIVE_LENGTH_MEASURE(1.0E-006),#247);
#170=LINE('',#248,#249);
#171=POINT_STYLE(' ',#250,POSITIVE_LENGTH_MEASURE(1.0E-006),#251);
#172=CARTESIAN_POINT('',(19.75,0.0,0.0));
#173=CURVE_STYLE('',#252,POSITIVE_LENGTH_MEASURE(1.0E-006),#253);
#174=CIRCLE('',#254,19.75);
#175=CURVE_STYLE('',#255,POSITIVE_LENGTH_MEASURE(1.0E-006),#256);
#176=LINE('',#257,#258);
#177=SURFACE_STYLE_USAGE(.BOTH.,#259);
#178=FACE_OUTER_BOUND('',#260,.T.);
#179=CYLINDRICAL_SURFACE('',#261,19.75);
#180=CURVE_STYLE('',#262,POSITIVE_LENGTH_MEASURE(1.0E-006),#263);
#181=CIRCLE('',#264,19.75);
#182=PRODUCT_CONTEXT('',#37,'mechanical');
#183=PRODUCT_DEFINITION_FORMATION_WITH_SPECIFIED_SOURCE(' ','NONE',#104,.NOT_KNOWN.);
#184=CARTESIAN_POINT('',(0.0,0.0,0.0));
#185=DIRECTION('',(0.0,0.0,1.0));
#186=DIRECTION('',(1.0,0.0,0.0));
#187= (NAMED_UNIT(#112)LENGTH_UNIT()SI_UNIT(.MILLI.,.METRE.));
#188=DRAUGHTING_PRE_DEFINED_CURVE_FONT('continuous');
#189=COLOUR_RGB('',0.509803950786591,0.509803950786591,0.588235318660736);
#190=AXIS2_PLACEMENT_3D('',#266,#267,#268);
#191=SURFACE_SIDE_STYLE('',(#269));
#192=EDGE_LOOP('',(#270,#271,#272,#273));
#193=AXIS2_PLACEMENT_3D('',#274,#275,#276);
#194=DRAUGHTING_PRE_DEFINED_CURVE_FONT('continuous');
#195=COLOUR_RGB('',0.509803950786591,0.509803950786591,0.588235318660736);
#196=AXIS2_PLACEMENT_3D('',#277,#278,#279);
#197=DRAUGHTING_PRE_DEFINED_CURVE_FONT('continuous');
#198=COLOUR_RGB('',0.509803950786591,0.509803950786591,0.588235318660736);
#199=AXIS2_PLACEMENT_3D('',#280,#281,#282);
#200=PRE_DEFINED_MARKER('');
#201=COLOUR_RGB('',0.509803950786591,0.509803950786591,0.588235318660736);
#202=SURFACE_SIDE_STYLE('',(#283));
#203=EDGE_LOOP('',(#284,#285,#286,#287));
#204=AXIS2_PLACEMENT_3D('',#288,#289,#290);
#205=SURFACE_SIDE_STYLE('',(#291));
#206=EDGE_LOOP('',(#292,#293));
#207=EDGE_LOOP('',(#294,#295));
#208=AXIS2_PLACEMENT_3D('',#296,#297,#298);
#209=PRE_DEFINED_MARKER('');
#210=COLOUR_RGB('',0.509803950786591,0.509803950786591,0.588235318660736);
#211=PRE_DEFINED_MARKER('');
#212=COLOUR_RGB('',0.509803950786591,0.509803950786591,0.588235318660736);
#213=SURFACE_SIDE_STYLE('',(#299));
#214=DRAUGHTING_PRE_DEFINED_CURVE_FONT('continuous');
#215=COLOUR_RGB('',0.509803950786591,0.509803950786591,0.588235318660736);
#216=CARTESIAN_POINT('',(19.75,-2.4185975487992E-015,0.0));
#217=VECTOR('',#300,1.0);
#218=SURFACE_SIDE_STYLE('',(#301));
#219=EDGE_LOOP('',(#302,#303,#304,#305));
#220=AXIS2_PLACEMENT_3D('',#306,#307,#308);
#221=PRE_DEFINED_MARKER('');
#222=COLOUR_RGB('',0.509803950786591,0.509803950786591,0.588235318660736);
#223=PRE_DEFINED_MARKER('');
#224=COLOUR_RGB('',0.509803950786591,0.509803950786591,0.588235318660736);
#225=DRAUGHTING_PRE_DEFINED_CURVE_FONT('continuous');
#226=COLOUR_RGB('',0.509803950786591,0.509803950786591,0.588235318660736);
#227=AXIS2_PLACEMENT_3D('',#309,#310,#311);
#228=SURFACE_SIDE_STYLE('',(#312));
#229=EDGE_LOOP('',(#313,#314));
#230=EDGE_LOOP('',(#315,#316));
#231=AXIS2_PLACEMENT_3D('',#317,#318,#319);
#232=PRE_DEFINED_MARKER('');
#233=COLOUR_RGB('',0.509803950786591,0.509803950786591,0.588235318660736);
#234=DRAUGHTING_PRE_DEFINED_CURVE_FONT('continuous');
#235=COLOUR_RGB('',0.509803950786591,0.509803950786591,0.588235318660736);
#236=AXIS2_PLACEMENT_3D('',#320,#321,#322);
#237=DRAUGHTING_PRE_DEFINED_CURVE_FONT('continuous');
#238=COLOUR_RGB('',0.509803950786591,0.509803950786591,0.588235318660736);
#239=AXIS2_PLACEMENT_3D('',#323,#324,#325);
#240=PRE_DEFINED_MARKER('');
#241=COLOUR_RGB('',0.509803950786591,0.509803950786591,0.588235318660736);
#242=DRAUGHTING_PRE_DEFINED_CURVE_FONT('continuous');
#243=COLOUR_RGB('',0.509803950786591,0.509803950786591,0.588235318660736);
#244=CARTESIAN_POINT('',(6.5,-7.95994129984545E-016,0.0));
#245=VECTOR('',#326,1.0);
#246=DRAUGHTING_PRE_DEFINED_CURVE_FONT('continuous');
#247=COLOUR_RGB('',0.509803950786591,0.509803950786591,0.588235318660736);
#248=CARTESIAN_POINT('',(-19.75,2.4185975487992E-015,0.0));
#249=VECTOR('',#327,1.0);
#250=PRE_DEFINED_MARKER('');
#251=COLOUR_RGB('',0.509803950786591,0.509803950786591,0.588235318660736);
#252=DRAUGHTING_PRE_DEFINED_CURVE_FONT('continuous');
#253=COLOUR_RGB('',0.509803950786591,0.509803950786591,0.588235318660736);
#254=AXIS2_PLACEMENT_3D('',#328,#329,#330);
#255=DRAUGHTING_PRE_DEFINED_CURVE_FONT('continuous');
#256=COLOUR_RGB('',0.509803950786591,0.509803950786591,0.588235318660736);
#257=CARTESIAN_POINT('',(-6.5,7.95994129984545E-016,0.0));
#258=VECTOR('',#331,1.0);
#259=SURFACE_SIDE_STYLE('',(#332));
#260=EDGE_LOOP('',(#333,#334,#335,#336));
#261=AXIS2_PLACEMENT_3D('',#337,#338,#339);
#262=DRAUGHTING_PRE_DEFINED_CURVE_FONT('continuous');
#263=COLOUR_RGB('',0.509803950786591,0.509803950786591,0.588235318660736);
#264=AXIS2_PLACEMENT_3D('',#340,#341,#342);
#266=CARTESIAN_POINT('',(0.0,0.0,3.0));
#267=DIRECTION('',(0.0,0.0,-1.0));
#268=DIRECTION('',(-1.0,0.0,0.0));
#269=SURFACE_STYLE_FILL_AREA(#343);
#270=ORIENTED_EDGE('',*,*,#71,.F.);
#271=ORIENTED_EDGE('',*,*,#103,.T.);
#272=ORIENTED_EDGE('',*,*,#93,.F.);
#273=ORIENTED_EDGE('',*,*,#51,.T.);
#274=CARTESIAN_POINT('',(0.0,0.0,0.0));
#275=DIRECTION('',(-0.0,-0.0,-1.0));
#276=DIRECTION('',(1.0,0.0,0.0));
#277=CARTESIAN_POINT('',(0.0,0.0,0.0));
#278=DIRECTION('',(0.0,0.0,1.0));
#279=DIRECTION('',(1.0,0.0,0.0));
#280=CARTESIAN_POINT('',(0.0,0.0,3.0));
#281=DIRECTION('',(0.0,0.0,-1.0));
#282=DIRECTION('',(1.0,0.0,0.0));
#283=SURFACE_STYLE_FILL_AREA(#344);
#284=ORIENTED_EDGE('',*,*,#91,.F.);
#285=ORIENTED_EDGE('',*,*,#57,.F.);
#286=ORIENTED_EDGE('',*,*,#99,.F.);
#287=ORIENTED_EDGE('',*,*,#55,.F.);
#288=CARTESIAN_POINT('',(0.0,0.0,0.0));
#289=DIRECTION('',(-0.0,-0.0,-1.0));
#290=DIRECTION('',(1.0,0.0,0.0));
#291=SURFACE_STYLE_FILL_AREA(#345);
#292=ORIENTED_EDGE('',*,*,#57,.T.);
#293=ORIENTED_EDGE('',*,*,#85,.T.);
#294=ORIENTED_EDGE('',*,*,#51,.F.);
#295=ORIENTED_EDGE('',*,*,#97,.F.);
#296=CARTESIAN_POINT('',(0.0,0.0,3.0));
#297=DIRECTION('',(0.0,0.0,1.0));
#298=DIRECTION('',(1.0,0.0,0.0));
#299=SURFACE_STYLE_FILL_AREA(#346);
#300=DIRECTION('',(0.0,0.0,1.0));
#301=SURFACE_STYLE_FILL_AREA(#347);
#302=ORIENTED_EDGE('',*,*,#91,.T.);
#303=ORIENTED_EDGE('',*,*,#79,.F.);
#304=ORIENTED_EDGE('',*,*,#99,.T.);
#305=ORIENTED_EDGE('',*,*,#85,.F.);
#306=CARTESIAN_POINT('',(0.0,0.0,0.0));
#307=DIRECTION('',(-0.0,-0.0,-1.0));
#308=DIRECTION('',(1.0,0.0,0.0));
#309=CARTESIAN_POINT('',(0.0,0.0,0.0));
#310=DIRECTION('',(0.0,0.0,1.0));
#311=DIRECTION('',(1.0,0.0,0.0));
#312=SURFACE_STYLE_FILL_AREA(#348);
#313=ORIENTED_EDGE('',*,*,#55,.T.);
#314=ORIENTED_EDGE('',*,*,#79,.T.);
#315=ORIENTED_EDGE('',*,*,#103,.F.);
#316=ORIENTED_EDGE('',*,*,#87,.F.);
#317=CARTESIAN_POINT('',(0.0,0.0,0.0));
#318=DIRECTION('',(0.0,0.0,1.0));
#319=DIRECTION('',(1.0,0.0,0.0));
#320=CARTESIAN_POINT('',(0.0,0.0,3.0));
#321=DIRECTION('',(0.0,0.0,-1.0));
#322=DIRECTION('',(1.0,0.0,0.0));
#323=CARTESIAN_POINT('',(0.0,0.0,0.0));
#324=DIRECTION('',(0.0,0.0,1.0));
#325=DIRECTION('',(1.0,0.0,0.0));
#326=DIRECTION('',(-0.0,0.0,-1.0));
#327=DIRECTION('',(-0.0,-0.0,-1.0));
#328=CARTESIAN_POINT('',(0.0,0.0,3.0));
#329=DIRECTION('',(0.0,0.0,-1.0));
#330=DIRECTION('',(-1.0,0.0,0.0));
#331=DIRECTION('',(-0.0,0.0,1.0));
#332=SURFACE_STYLE_FILL_AREA(#349);
#333=ORIENTED_EDGE('',*,*,#71,.T.);
#334=ORIENTED_EDGE('',*,*,#97,.T.);
#335=ORIENTED_EDGE('',*,*,#93,.T.);
#336=ORIENTED_EDGE('',*,*,#87,.T.);
#337=CARTESIAN_POINT('',(0.0,0.0,0.0));
#338=DIRECTION('',(-0.0,-0.0,-1.0));
#339=DIRECTION('',(1.0,0.0,0.0));
#340=CARTESIAN_POINT('',(0.0,0.0,0.0));
#341=DIRECTION('',(0.0,0.0,1.0));
#342=DIRECTION('',(1.0,0.0,0.0));
#343=FILL_AREA_STYLE('',(#350));
#344=FILL_AREA_STYLE('',(#351));
#345=FILL_AREA_STYLE('',(#352));
#346=FILL_AREA_STYLE('',(#353));
#347=FILL_AREA_STYLE('',(#354));
#348=FILL_AREA_STYLE('',(#355));
#349=FILL_AREA_STYLE('',(#356));
#350=FILL_AREA_STYLE_COLOUR('',#357);
#351=FILL_AREA_STYLE_COLOUR('',#358);
#352=FILL_AREA_STYLE_COLOUR('',#359);
#353=FILL_AREA_STYLE_COLOUR('',#360);
#354=FILL_AREA_STYLE_COLOUR('',#361);
#355=FILL_AREA_STYLE_COLOUR('',#362);
#356=FILL_AREA_STYLE_COLOUR('',#363);
#357=COLOUR_RGB('',0.509803950786591,0.509803950786591,0.588235318660736);
#358=COLOUR_RGB('',0.509803950786591,0.509803950786591,0.588235318660736);
#359=COLOUR_RGB('',0.509803950786591,0.509803950786591,0.588235318660736);
#360=COLOUR_RGB('',0.509803950786591,0.509803950786591,0.588235318660736);
#361=COLOUR_RGB('',0.509803950786591,0.509803950786591,0.588235318660736);
#362=COLOUR_RGB('',0.509803950786591,0.509803950786591,0.588235318660736);
#363=COLOUR_RGB('',0.509803950786591,0.509803950786591,0.588235318660736);
ENDSEC;
END-ISO-10303-21;
