ISO-10303-21;
HEADER;
FILE_DESCRIPTION(('STEP AP214'),'1');
FILE_NAME(' ','  ',('TraceParts'),('TraceParts S.A.'),'XStep 1.0',' ',' ');
FILE_SCHEMA(('automotive_design'));
ENDSEC;
DATA;
#1=MECHANICAL_DESIGN_GEOMETRIC_PRESENTATION_REPRESENTATION(' ',(#10,#11,#12,#13,#14,#15,#16,#17,#18,#19,#20,#21,#22,#23,#24,#25,#26,#27,#28,#29,#30,#31,#32,#33,#34,#35),#6);
#2=PRODUCT_DEFINITION_CONTEXT('',#36,'design');
#3=APPLICATION_PROTOCOL_DEFINITION('INTERNATIONAL STANDARD','automotive_design',1994,#36);
#4=PRODUCT_CATEGORY_RELATIONSHIP('NONE','NONE',#37,#38);
#5=SHAPE_DEFINITION_REPRESENTATION(#39,#40);
#6= (GEOMETRIC_REPRESENTATION_CONTEXT(3)GLOBAL_UNCERTAINTY_ASSIGNED_CONTEXT((#43))GLOBAL_UNIT_ASSIGNED_CONTEXT((#45,#46,#47))REPRESENTATION_CONTEXT('NONE','WORKSPACE'));
#10=STYLED_ITEM('',(#49),#50);
#11=STYLED_ITEM('',(#51),#52);
#12=STYLED_ITEM('',(#53),#54);
#13=STYLED_ITEM('',(#55),#56);
#14=STYLED_ITEM('',(#57),#58);
#15=STYLED_ITEM('',(#59),#60);
#16=STYLED_ITEM('',(#61),#62);
#17=STYLED_ITEM('',(#63),#64);
#18=STYLED_ITEM('',(#65),#66);
#19=STYLED_ITEM('',(#67),#68);
#20=STYLED_ITEM('',(#69),#70);
#21=STYLED_ITEM('',(#71),#72);
#22=STYLED_ITEM('',(#73),#74);
#23=STYLED_ITEM('',(#75),#76);
#24=STYLED_ITEM('',(#77),#78);
#25=STYLED_ITEM('',(#79),#80);
#26=STYLED_ITEM('',(#81),#82);
#27=STYLED_ITEM('',(#83),#84);
#28=STYLED_ITEM('',(#85),#86);
#29=STYLED_ITEM('',(#87),#88);
#30=STYLED_ITEM('',(#89),#90);
#31=STYLED_ITEM('',(#91),#92);
#32=STYLED_ITEM('',(#93),#94);
#33=STYLED_ITEM('',(#95),#96);
#34=STYLED_ITEM('',(#97),#98);
#35=STYLED_ITEM('',(#99),#100);
#36=APPLICATION_CONTEXT(' ');
#37=PRODUCT_CATEGORY('part','NONE');
#38=PRODUCT_RELATED_PRODUCT_CATEGORY('detail',' ',(#101));
#39=PRODUCT_DEFINITION_SHAPE('NONE','NONE',#102);
#40=ADVANCED_BREP_SHAPE_REPRESENTATION('1',(#103,#104),#6);
#43=UNCERTAINTY_MEASURE_WITH_UNIT(LENGTH_MEASURE(1.0E-006),#45,'','');
#45= (CONVERSION_BASED_UNIT('MILLIMETRE',#107)LENGTH_UNIT()NAMED_UNIT(#110));
#46= (NAMED_UNIT(#112)PLANE_ANGLE_UNIT()SI_UNIT($,.RADIAN.));
#47= (NAMED_UNIT(#112)SOLID_ANGLE_UNIT()SI_UNIT($,.STERADIAN.));
#49=PRESENTATION_STYLE_ASSIGNMENT((#118));
#50=EDGE_CURVE('',#74,#76,#119,.T.);
#51=PRESENTATION_STYLE_ASSIGNMENT((#120));
#52=VERTEX_POINT('',#121);
#53=PRESENTATION_STYLE_ASSIGNMENT((#122));
#54=EDGE_CURVE('',#60,#96,#123,.T.);
#55=PRESENTATION_STYLE_ASSIGNMENT((#124));
#56=ADVANCED_FACE('',(#125,#126),#127,.T.);
#57=PRESENTATION_STYLE_ASSIGNMENT((#128));
#58=ADVANCED_FACE('',(#129,#130),#131,.F.);
#59=PRESENTATION_STYLE_ASSIGNMENT((#132));
#60=VERTEX_POINT('',#133);
#61=PRESENTATION_STYLE_ASSIGNMENT((#134));
#62=EDGE_CURVE('',#52,#60,#135,.T.);
#63=PRESENTATION_STYLE_ASSIGNMENT((#136));
#64=VERTEX_POINT('',#137);
#65=PRESENTATION_STYLE_ASSIGNMENT((#138));
#66=EDGE_CURVE('',#76,#86,#139,.T.);
#67=PRESENTATION_STYLE_ASSIGNMENT((#140));
#68=EDGE_CURVE('',#90,#74,#141,.T.);
#69=PRESENTATION_STYLE_ASSIGNMENT((#142));
#70=ADVANCED_FACE('',(#143),#144,.T.);
#71=PRESENTATION_STYLE_ASSIGNMENT((#145));
#72=EDGE_CURVE('',#86,#76,#146,.T.);
#73=PRESENTATION_STYLE_ASSIGNMENT((#147));
#74=VERTEX_POINT('',#148);
#75=PRESENTATION_STYLE_ASSIGNMENT((#149));
#76=VERTEX_POINT('',#150);
#77=PRESENTATION_STYLE_ASSIGNMENT((#151));
#78=EDGE_CURVE('',#64,#96,#152,.T.);
#79=PRESENTATION_STYLE_ASSIGNMENT((#153));
#80=EDGE_CURVE('',#96,#60,#154,.T.);
#81=PRESENTATION_STYLE_ASSIGNMENT((#155));
#82=EDGE_CURVE('',#52,#64,#156,.T.);
#83=PRESENTATION_STYLE_ASSIGNMENT((#157));
#84=EDGE_CURVE('',#90,#86,#158,.T.);
#85=PRESENTATION_STYLE_ASSIGNMENT((#159));
#86=VERTEX_POINT('',#160);
#87=PRESENTATION_STYLE_ASSIGNMENT((#161));
#88=ADVANCED_FACE('',(#162),#163,.F.);
#89=PRESENTATION_STYLE_ASSIGNMENT((#164));
#90=VERTEX_POINT('',#165);
#91=PRESENTATION_STYLE_ASSIGNMENT((#166));
#92=EDGE_CURVE('',#74,#90,#167,.T.);
#93=PRESENTATION_STYLE_ASSIGNMENT((#168));
#94=EDGE_CURVE('',#64,#52,#169,.T.);
#95=PRESENTATION_STYLE_ASSIGNMENT((#170));
#96=VERTEX_POINT('',#171);
#97=PRESENTATION_STYLE_ASSIGNMENT((#172));
#98=ADVANCED_FACE('',(#173),#174,.F.);
#99=PRESENTATION_STYLE_ASSIGNMENT((#175));
#100=ADVANCED_FACE('',(#176),#177,.T.);
#101=PRODUCT('1','1','PART-1-DESC',(#178));
#102=PRODUCT_DEFINITION('NONE','NONE',#179,#2);
#103=MANIFOLD_SOLID_BREP('1',#180);
#104=AXIS2_PLACEMENT_3D('',#181,#182,#183);
#107=LENGTH_MEASURE_WITH_UNIT(LENGTH_MEASURE(1.0),#184);
#110=DIMENSIONAL_EXPONENTS(1.0,0.0,0.0,0.0,0.0,0.0,0.0);
#112=DIMENSIONAL_EXPONENTS(0.0,0.0,0.0,0.0,0.0,0.0,0.0);
#118=CURVE_STYLE('',#185,POSITIVE_LENGTH_MEASURE(1.0E-006),#186);
#119=LINE('',#187,#188);
#120=POINT_STYLE(' ',#189,POSITIVE_LENGTH_MEASURE(1.0E-006),#190);
#121=CARTESIAN_POINT('',(4.25,0.0,0.0));
#122=CURVE_STYLE('',#191,POSITIVE_LENGTH_MEASURE(1.0E-006),#192);
#123=CIRCLE('',#193,4.25);
#124=SURFACE_STYLE_USAGE(.BOTH.,#194);
#125=FACE_OUTER_BOUND('',#195,.T.);
#126=FACE_BOUND('',#196,.T.);
#127=PLANE('',#197);
#128=SURFACE_STYLE_USAGE(.BOTH.,#198);
#129=FACE_OUTER_BOUND('',#199,.T.);
#130=FACE_BOUND('',#200,.T.);
#131=PLANE('',#201);
#132=POINT_STYLE(' ',#202,POSITIVE_LENGTH_MEASURE(1.0E-006),#203);
#133=CARTESIAN_POINT('',(4.25,0.0,4.0));
#134=CURVE_STYLE('',#204,POSITIVE_LENGTH_MEASURE(1.0E-006),#205);
#135=LINE('',#206,#207);
#136=POINT_STYLE(' ',#208,POSITIVE_LENGTH_MEASURE(1.0E-006),#209);
#137=CARTESIAN_POINT('',(-4.25,5.2045770037451E-016,0.0));
#138=CURVE_STYLE('',#210,POSITIVE_LENGTH_MEASURE(1.0E-006),#211);
#139=CIRCLE('',#212,12.0);
#140=CURVE_STYLE('',#213,POSITIVE_LENGTH_MEASURE(1.0E-006),#214);
#141=CIRCLE('',#215,12.0);
#142=SURFACE_STYLE_USAGE(.BOTH.,#216);
#143=FACE_OUTER_BOUND('',#217,.T.);
#144=CYLINDRICAL_SURFACE('',#218,12.0);
#145=CURVE_STYLE('',#219,POSITIVE_LENGTH_MEASURE(1.0E-006),#220);
#146=CIRCLE('',#221,12.0);
#147=POINT_STYLE(' ',#222,POSITIVE_LENGTH_MEASURE(1.0E-006),#223);
#148=CARTESIAN_POINT('',(-12.0,1.46952762458685E-015,0.0));
#149=POINT_STYLE(' ',#224,POSITIVE_LENGTH_MEASURE(1.0E-006),#225);
#150=CARTESIAN_POINT('',(-12.0,1.46952762458685E-015,4.0));
#151=CURVE_STYLE('',#226,POSITIVE_LENGTH_MEASURE(1.0E-006),#227);
#152=LINE('',#228,#229);
#153=CURVE_STYLE('',#230,POSITIVE_LENGTH_MEASURE(1.0E-006),#231);
#154=CIRCLE('',#232,4.25);
#155=CURVE_STYLE('',#233,POSITIVE_LENGTH_MEASURE(1.0E-006),#234);
#156=CIRCLE('',#235,4.25);
#157=CURVE_STYLE('',#236,POSITIVE_LENGTH_MEASURE(1.0E-006),#237);
#158=LINE('',#238,#239);
#159=POINT_STYLE(' ',#240,POSITIVE_LENGTH_MEASURE(1.0E-006),#241);
#160=CARTESIAN_POINT('',(12.0,0.0,4.0));
#161=SURFACE_STYLE_USAGE(.BOTH.,#242);
#162=FACE_OUTER_BOUND('',#243,.T.);
#163=CYLINDRICAL_SURFACE('',#244,4.25);
#164=POINT_STYLE(' ',#245,POSITIVE_LENGTH_MEASURE(1.0E-006),#246);
#165=CARTESIAN_POINT('',(12.0,0.0,0.0));
#166=CURVE_STYLE('',#247,POSITIVE_LENGTH_MEASURE(1.0E-006),#248);
#167=CIRCLE('',#249,12.0);
#168=CURVE_STYLE('',#250,POSITIVE_LENGTH_MEASURE(1.0E-006),#251);
#169=CIRCLE('',#252,4.25);
#170=POINT_STYLE(' ',#253,POSITIVE_LENGTH_MEASURE(1.0E-006),#254);
#171=CARTESIAN_POINT('',(-4.25,5.2045770037451E-016,4.0));
#172=SURFACE_STYLE_USAGE(.BOTH.,#255);
#173=FACE_OUTER_BOUND('',#256,.T.);
#174=CYLINDRICAL_SURFACE('',#257,4.25);
#175=SURFACE_STYLE_USAGE(.BOTH.,#258);
#176=FACE_OUTER_BOUND('',#259,.T.);
#177=CYLINDRICAL_SURFACE('',#260,12.0);
#178=PRODUCT_CONTEXT('',#36,'mechanical');
#179=PRODUCT_DEFINITION_FORMATION_WITH_SPECIFIED_SOURCE(' ','NONE',#101,.NOT_KNOWN.);
#180=CLOSED_SHELL('',(#98,#58,#56,#88,#100,#70));
#181=CARTESIAN_POINT('',(0.0,0.0,0.0));
#182=DIRECTION('',(0.0,0.0,1.0));
#183=DIRECTION('',(1.0,0.0,0.0));
#184= (NAMED_UNIT(#110)LENGTH_UNIT()SI_UNIT(.MILLI.,.METRE.));
#185=DRAUGHTING_PRE_DEFINED_CURVE_FONT('continuous');
#186=COLOUR_RGB('',0.505882382392883,0.505882382392883,0.584313750267029);
#187=CARTESIAN_POINT('',(-12.0,1.46952762458685E-015,0.0));
#188=VECTOR('',#262,1000.0);
#189=PRE_DEFINED_MARKER('');
#190=COLOUR_RGB('',0.505882382392883,0.505882382392883,0.584313750267029);
#191=DRAUGHTING_PRE_DEFINED_CURVE_FONT('continuous');
#192=COLOUR_RGB('',0.505882382392883,0.505882382392883,0.584313750267029);
#193=AXIS2_PLACEMENT_3D('',#263,#264,#265);
#194=SURFACE_SIDE_STYLE('',(#266));
#195=EDGE_LOOP('',(#267,#268));
#196=EDGE_LOOP('',(#269,#270));
#197=AXIS2_PLACEMENT_3D('',#271,#272,#273);
#198=SURFACE_SIDE_STYLE('',(#274));
#199=EDGE_LOOP('',(#275,#276));
#200=EDGE_LOOP('',(#277,#278));
#201=AXIS2_PLACEMENT_3D('',#279,#280,#281);
#202=PRE_DEFINED_MARKER('');
#203=COLOUR_RGB('',0.505882382392883,0.505882382392883,0.584313750267029);
#204=DRAUGHTING_PRE_DEFINED_CURVE_FONT('continuous');
#205=COLOUR_RGB('',0.505882382392883,0.505882382392883,0.584313750267029);
#206=CARTESIAN_POINT('',(4.25,0.0,0.0));
#207=VECTOR('',#282,1000.0);
#208=PRE_DEFINED_MARKER('');
#209=COLOUR_RGB('',0.505882382392883,0.505882382392883,0.584313750267029);
#210=DRAUGHTING_PRE_DEFINED_CURVE_FONT('continuous');
#211=COLOUR_RGB('',0.505882382392883,0.505882382392883,0.584313750267029);
#212=AXIS2_PLACEMENT_3D('',#283,#284,#285);
#213=DRAUGHTING_PRE_DEFINED_CURVE_FONT('continuous');
#214=COLOUR_RGB('',0.505882382392883,0.505882382392883,0.584313750267029);
#215=AXIS2_PLACEMENT_3D('',#286,#287,#288);
#216=SURFACE_SIDE_STYLE('',(#289));
#217=EDGE_LOOP('',(#290,#291,#292,#293));
#218=AXIS2_PLACEMENT_3D('',#294,#295,#296);
#219=DRAUGHTING_PRE_DEFINED_CURVE_FONT('continuous');
#220=COLOUR_RGB('',0.505882382392883,0.505882382392883,0.584313750267029);
#221=AXIS2_PLACEMENT_3D('',#297,#298,#299);
#222=PRE_DEFINED_MARKER('');
#223=COLOUR_RGB('',0.505882382392883,0.505882382392883,0.584313750267029);
#224=PRE_DEFINED_MARKER('');
#225=COLOUR_RGB('',0.505882382392883,0.505882382392883,0.584313750267029);
#226=DRAUGHTING_PRE_DEFINED_CURVE_FONT('continuous');
#227=COLOUR_RGB('',0.505882382392883,0.505882382392883,0.584313750267029);
#228=CARTESIAN_POINT('',(-4.25,5.2045770037451E-016,0.0));
#229=VECTOR('',#300,1000.0);
#230=DRAUGHTING_PRE_DEFINED_CURVE_FONT('continuous');
#231=COLOUR_RGB('',0.505882382392883,0.505882382392883,0.584313750267029);
#232=AXIS2_PLACEMENT_3D('',#301,#302,#303);
#233=DRAUGHTING_PRE_DEFINED_CURVE_FONT('continuous');
#234=COLOUR_RGB('',0.505882382392883,0.505882382392883,0.584313750267029);
#235=AXIS2_PLACEMENT_3D('',#304,#305,#306);
#236=DRAUGHTING_PRE_DEFINED_CURVE_FONT('continuous');
#237=COLOUR_RGB('',0.505882382392883,0.505882382392883,0.584313750267029);
#238=CARTESIAN_POINT('',(12.0,0.0,0.0));
#239=VECTOR('',#307,1000.0);
#240=PRE_DEFINED_MARKER('');
#241=COLOUR_RGB('',0.505882382392883,0.505882382392883,0.584313750267029);
#242=SURFACE_SIDE_STYLE('',(#308));
#243=EDGE_LOOP('',(#309,#310,#311,#312));
#244=AXIS2_PLACEMENT_3D('',#313,#314,#315);
#245=PRE_DEFINED_MARKER('');
#246=COLOUR_RGB('',0.505882382392883,0.505882382392883,0.584313750267029);
#247=DRAUGHTING_PRE_DEFINED_CURVE_FONT('continuous');
#248=COLOUR_RGB('',0.505882382392883,0.505882382392883,0.584313750267029);
#249=AXIS2_PLACEMENT_3D('',#316,#317,#318);
#250=DRAUGHTING_PRE_DEFINED_CURVE_FONT('continuous');
#251=COLOUR_RGB('',0.505882382392883,0.505882382392883,0.584313750267029);
#252=AXIS2_PLACEMENT_3D('',#319,#320,#321);
#253=PRE_DEFINED_MARKER('');
#254=COLOUR_RGB('',0.505882382392883,0.505882382392883,0.584313750267029);
#255=SURFACE_SIDE_STYLE('',(#322));
#256=EDGE_LOOP('',(#323,#324,#325,#326));
#257=AXIS2_PLACEMENT_3D('',#327,#328,#329);
#258=SURFACE_SIDE_STYLE('',(#330));
#259=EDGE_LOOP('',(#331,#332,#333,#334));
#260=AXIS2_PLACEMENT_3D('',#335,#336,#337);
#262=DIRECTION('',(0.0,0.0,1.0));
#263=CARTESIAN_POINT('',(0.0,0.0,4.0));
#264=DIRECTION('',(0.0,0.0,-1.0));
#265=DIRECTION('',(1.0,0.0,0.0));
#266=SURFACE_STYLE_FILL_AREA(#338);
#267=ORIENTED_EDGE('',*,*,#72,.T.);
#268=ORIENTED_EDGE('',*,*,#66,.T.);
#269=ORIENTED_EDGE('',*,*,#54,.T.);
#270=ORIENTED_EDGE('',*,*,#80,.T.);
#271=CARTESIAN_POINT('',(0.0,0.0,4.0));
#272=DIRECTION('',(0.0,0.0,1.0));
#273=DIRECTION('',(1.0,0.0,0.0));
#274=SURFACE_STYLE_FILL_AREA(#339);
#275=ORIENTED_EDGE('',*,*,#68,.F.);
#276=ORIENTED_EDGE('',*,*,#92,.F.);
#277=ORIENTED_EDGE('',*,*,#82,.T.);
#278=ORIENTED_EDGE('',*,*,#94,.T.);
#279=CARTESIAN_POINT('',(0.0,0.0,0.0));
#280=DIRECTION('',(0.0,0.0,1.0));
#281=DIRECTION('',(1.0,0.0,0.0));
#282=DIRECTION('',(0.0,0.0,1.0));
#283=CARTESIAN_POINT('',(0.0,0.0,4.0));
#284=DIRECTION('',(0.0,0.0,1.0));
#285=DIRECTION('',(1.0,0.0,0.0));
#286=CARTESIAN_POINT('',(0.0,0.0,0.0));
#287=DIRECTION('',(0.0,0.0,1.0));
#288=DIRECTION('',(1.0,0.0,0.0));
#289=SURFACE_STYLE_FILL_AREA(#340);
#290=ORIENTED_EDGE('',*,*,#68,.T.);
#291=ORIENTED_EDGE('',*,*,#50,.T.);
#292=ORIENTED_EDGE('',*,*,#72,.F.);
#293=ORIENTED_EDGE('',*,*,#84,.F.);
#294=CARTESIAN_POINT('',(0.0,0.0,0.0));
#295=DIRECTION('',(-0.0,-0.0,-1.0));
#296=DIRECTION('',(1.0,0.0,0.0));
#297=CARTESIAN_POINT('',(0.0,0.0,4.0));
#298=DIRECTION('',(0.0,0.0,1.0));
#299=DIRECTION('',(1.0,0.0,0.0));
#300=DIRECTION('',(0.0,0.0,1.0));
#301=CARTESIAN_POINT('',(0.0,0.0,4.0));
#302=DIRECTION('',(0.0,0.0,-1.0));
#303=DIRECTION('',(1.0,0.0,0.0));
#304=CARTESIAN_POINT('',(0.0,0.0,0.0));
#305=DIRECTION('',(0.0,0.0,1.0));
#306=DIRECTION('',(1.0,0.0,0.0));
#307=DIRECTION('',(0.0,0.0,1.0));
#308=SURFACE_STYLE_FILL_AREA(#341);
#309=ORIENTED_EDGE('',*,*,#94,.F.);
#310=ORIENTED_EDGE('',*,*,#78,.T.);
#311=ORIENTED_EDGE('',*,*,#54,.F.);
#312=ORIENTED_EDGE('',*,*,#62,.F.);
#313=CARTESIAN_POINT('',(0.0,0.0,0.0));
#314=DIRECTION('',(-0.0,-0.0,-1.0));
#315=DIRECTION('',(1.0,0.0,0.0));
#316=CARTESIAN_POINT('',(0.0,0.0,0.0));
#317=DIRECTION('',(0.0,0.0,1.0));
#318=DIRECTION('',(1.0,0.0,0.0));
#319=CARTESIAN_POINT('',(0.0,0.0,0.0));
#320=DIRECTION('',(0.0,0.0,1.0));
#321=DIRECTION('',(1.0,0.0,0.0));
#322=SURFACE_STYLE_FILL_AREA(#342);
#323=ORIENTED_EDGE('',*,*,#78,.F.);
#324=ORIENTED_EDGE('',*,*,#82,.F.);
#325=ORIENTED_EDGE('',*,*,#62,.T.);
#326=ORIENTED_EDGE('',*,*,#80,.F.);
#327=CARTESIAN_POINT('',(0.0,0.0,0.0));
#328=DIRECTION('',(-0.0,-0.0,-1.0));
#329=DIRECTION('',(1.0,0.0,0.0));
#330=SURFACE_STYLE_FILL_AREA(#343);
#331=ORIENTED_EDGE('',*,*,#50,.F.);
#332=ORIENTED_EDGE('',*,*,#92,.T.);
#333=ORIENTED_EDGE('',*,*,#84,.T.);
#334=ORIENTED_EDGE('',*,*,#66,.F.);
#335=CARTESIAN_POINT('',(0.0,0.0,0.0));
#336=DIRECTION('',(-0.0,-0.0,-1.0));
#337=DIRECTION('',(1.0,0.0,0.0));
#338=FILL_AREA_STYLE('',(#344));
#339=FILL_AREA_STYLE('',(#345));
#340=FILL_AREA_STYLE('',(#346));
#341=FILL_AREA_STYLE('',(#347));
#342=FILL_AREA_STYLE('',(#348));
#343=FILL_AREA_STYLE('',(#349));
#344=FILL_AREA_STYLE_COLOUR('',#350);
#345=FILL_AREA_STYLE_COLOUR('',#351);
#346=FILL_AREA_STYLE_COLOUR('',#352);
#347=FILL_AREA_STYLE_COLOUR('',#353);
#348=FILL_AREA_STYLE_COLOUR('',#354);
#349=FILL_AREA_STYLE_COLOUR('',#355);
#350=COLOUR_RGB('',0.505882382392883,0.505882382392883,0.584313750267029);
#351=COLOUR_RGB('',0.505882382392883,0.505882382392883,0.584313750267029);
#352=COLOUR_RGB('',0.505882382392883,0.505882382392883,0.584313750267029);
#353=COLOUR_RGB('',0.505882382392883,0.505882382392883,0.584313750267029);
#354=COLOUR_RGB('',0.505882382392883,0.505882382392883,0.584313750267029);
#355=COLOUR_RGB('',0.505882382392883,0.505882382392883,0.584313750267029);
ENDSEC;
END-ISO-10303-21;
