ISO-10303-21;
HEADER;
FILE_DESCRIPTION(('STEP AP214'),'1');
FILE_NAME(' ','  ',('TraceParts'),('TraceParts S.A.'),'XStep 1.0',' ',' ');
FILE_SCHEMA(('automotive_design'));
ENDSEC;
DATA;
#1=MECHANICAL_DESIGN_GEOMETRIC_PRESENTATION_REPRESENTATION(' ',(#10,#11,#12,#13,#14,#15,#16,#17,#18,#19,#20,#21,#22,#23,#24,#25,#26,#27,#28,#29,#30,#31,#32,#33,#34,#35),#6);
#2=PRODUCT_DEFINITION_CONTEXT('',#36,'design');
#3=APPLICATION_PROTOCOL_DEFINITION('INTERNATIONAL STANDARD','automotive_design',1994,#36);
#4=PRODUCT_CATEGORY_RELATIONSHIP('NONE','NONE',#37,#38);
#5=SHAPE_DEFINITION_REPRESENTATION(#39,#40);
#6= (GEOMETRIC_REPRESENTATION_CONTEXT(3)GLOBAL_UNCERTAINTY_ASSIGNED_CONTEXT((#43))GLOBAL_UNIT_ASSIGNED_CONTEXT((#45,#46,#47))REPRESENTATION_CONTEXT('NONE','WORKSPACE'));
#10=STYLED_ITEM('',(#49),#50);
#11=STYLED_ITEM('',(#51),#52);
#12=STYLED_ITEM('',(#53),#54);
#13=STYLED_ITEM('',(#55),#56);
#14=STYLED_ITEM('',(#57),#58);
#15=STYLED_ITEM('',(#59),#60);
#16=STYLED_ITEM('',(#61),#62);
#17=STYLED_ITEM('',(#63),#64);
#18=STYLED_ITEM('',(#65),#66);
#19=STYLED_ITEM('',(#67),#68);
#20=STYLED_ITEM('',(#69),#70);
#21=STYLED_ITEM('',(#71),#72);
#22=STYLED_ITEM('',(#73),#74);
#23=STYLED_ITEM('',(#75),#76);
#24=STYLED_ITEM('',(#77),#78);
#25=STYLED_ITEM('',(#79),#80);
#26=STYLED_ITEM('',(#81),#82);
#27=STYLED_ITEM('',(#83),#84);
#28=STYLED_ITEM('',(#85),#86);
#29=STYLED_ITEM('',(#87),#88);
#30=STYLED_ITEM('',(#89),#90);
#31=STYLED_ITEM('',(#91),#92);
#32=STYLED_ITEM('',(#93),#94);
#33=STYLED_ITEM('',(#95),#96);
#34=STYLED_ITEM('',(#97),#98);
#35=STYLED_ITEM('',(#99),#100);
#36=APPLICATION_CONTEXT(' ');
#37=PRODUCT_CATEGORY('part','NONE');
#38=PRODUCT_RELATED_PRODUCT_CATEGORY('detail',' ',(#101));
#39=PRODUCT_DEFINITION_SHAPE('NONE','NONE',#102);
#40=ADVANCED_BREP_SHAPE_REPRESENTATION('1',(#103,#104),#6);
#43=UNCERTAINTY_MEASURE_WITH_UNIT(LENGTH_MEASURE(1.0E-006),#45,'','');
#45= (CONVERSION_BASED_UNIT('MILLIMETRE',#107)LENGTH_UNIT()NAMED_UNIT(#110));
#46= (NAMED_UNIT(#112)PLANE_ANGLE_UNIT()SI_UNIT($,.RADIAN.));
#47= (NAMED_UNIT(#112)SOLID_ANGLE_UNIT()SI_UNIT($,.STERADIAN.));
#49=PRESENTATION_STYLE_ASSIGNMENT((#118));
#50=VERTEX_POINT('',#119);
#51=PRESENTATION_STYLE_ASSIGNMENT((#120));
#52=EDGE_CURVE('',#50,#84,#121,.T.);
#53=PRESENTATION_STYLE_ASSIGNMENT((#122));
#54=EDGE_CURVE('',#50,#78,#123,.T.);
#55=PRESENTATION_STYLE_ASSIGNMENT((#124));
#56=ADVANCED_FACE('',(#125),#126,.T.);
#57=PRESENTATION_STYLE_ASSIGNMENT((#127));
#58=EDGE_CURVE('',#78,#50,#128,.T.);
#59=PRESENTATION_STYLE_ASSIGNMENT((#129));
#60=VERTEX_POINT('',#130);
#61=PRESENTATION_STYLE_ASSIGNMENT((#131));
#62=EDGE_CURVE('',#90,#66,#132,.T.);
#63=PRESENTATION_STYLE_ASSIGNMENT((#133));
#64=EDGE_CURVE('',#84,#60,#134,.T.);
#65=PRESENTATION_STYLE_ASSIGNMENT((#135));
#66=VERTEX_POINT('',#136);
#67=PRESENTATION_STYLE_ASSIGNMENT((#137));
#68=ADVANCED_FACE('',(#138),#139,.T.);
#69=PRESENTATION_STYLE_ASSIGNMENT((#140));
#70=VERTEX_POINT('',#141);
#71=PRESENTATION_STYLE_ASSIGNMENT((#142));
#72=EDGE_CURVE('',#66,#90,#143,.T.);
#73=PRESENTATION_STYLE_ASSIGNMENT((#144));
#74=EDGE_CURVE('',#90,#70,#145,.T.);
#75=PRESENTATION_STYLE_ASSIGNMENT((#146));
#76=EDGE_CURVE('',#78,#60,#147,.T.);
#77=PRESENTATION_STYLE_ASSIGNMENT((#148));
#78=VERTEX_POINT('',#149);
#79=PRESENTATION_STYLE_ASSIGNMENT((#150));
#80=ADVANCED_FACE('',(#151,#152),#153,.F.);
#81=PRESENTATION_STYLE_ASSIGNMENT((#154));
#82=ADVANCED_FACE('',(#155),#156,.F.);
#83=PRESENTATION_STYLE_ASSIGNMENT((#157));
#84=VERTEX_POINT('',#158);
#85=PRESENTATION_STYLE_ASSIGNMENT((#159));
#86=EDGE_CURVE('',#66,#96,#160,.T.);
#87=PRESENTATION_STYLE_ASSIGNMENT((#161));
#88=EDGE_CURVE('',#96,#70,#162,.T.);
#89=PRESENTATION_STYLE_ASSIGNMENT((#163));
#90=VERTEX_POINT('',#164);
#91=PRESENTATION_STYLE_ASSIGNMENT((#165));
#92=ADVANCED_FACE('',(#166),#167,.F.);
#93=PRESENTATION_STYLE_ASSIGNMENT((#168));
#94=EDGE_CURVE('',#70,#96,#169,.T.);
#95=PRESENTATION_STYLE_ASSIGNMENT((#170));
#96=VERTEX_POINT('',#171);
#97=PRESENTATION_STYLE_ASSIGNMENT((#172));
#98=ADVANCED_FACE('',(#173,#174),#175,.T.);
#99=PRESENTATION_STYLE_ASSIGNMENT((#176));
#100=EDGE_CURVE('',#60,#84,#177,.T.);
#101=PRODUCT('1','1','PART-1-DESC',(#178));
#102=PRODUCT_DEFINITION('NONE','NONE',#179,#2);
#103=MANIFOLD_SOLID_BREP('1',#180);
#104=AXIS2_PLACEMENT_3D('',#181,#182,#183);
#107=LENGTH_MEASURE_WITH_UNIT(LENGTH_MEASURE(1.0),#184);
#110=DIMENSIONAL_EXPONENTS(1.0,0.0,0.0,0.0,0.0,0.0,0.0);
#112=DIMENSIONAL_EXPONENTS(0.0,0.0,0.0,0.0,0.0,0.0,0.0);
#118=POINT_STYLE(' ',#185,POSITIVE_LENGTH_MEASURE(1.0E-006),#186);
#119=CARTESIAN_POINT('',(4.25,0.0,0.0));
#120=CURVE_STYLE('',#187,POSITIVE_LENGTH_MEASURE(1.0E-006),#188);
#121=LINE('',#189,#190);
#122=CURVE_STYLE('',#191,POSITIVE_LENGTH_MEASURE(1.0E-006),#192);
#123=CIRCLE('',#193,4.25);
#124=SURFACE_STYLE_USAGE(.BOTH.,#194);
#125=FACE_OUTER_BOUND('',#195,.T.);
#126=CYLINDRICAL_SURFACE('',#196,12.0);
#127=CURVE_STYLE('',#197,POSITIVE_LENGTH_MEASURE(1.0E-006),#198);
#128=CIRCLE('',#199,4.25);
#129=POINT_STYLE(' ',#200,POSITIVE_LENGTH_MEASURE(1.0E-006),#201);
#130=CARTESIAN_POINT('',(-4.25,5.2045770037451E-016,3.0));
#131=CURVE_STYLE('',#202,POSITIVE_LENGTH_MEASURE(1.0E-006),#203);
#132=CIRCLE('',#204,12.0);
#133=CURVE_STYLE('',#205,POSITIVE_LENGTH_MEASURE(1.0E-006),#206);
#134=CIRCLE('',#207,4.25);
#135=POINT_STYLE(' ',#208,POSITIVE_LENGTH_MEASURE(1.0E-006),#209);
#136=CARTESIAN_POINT('',(-12.0,1.46952762458685E-015,0.0));
#137=SURFACE_STYLE_USAGE(.BOTH.,#210);
#138=FACE_OUTER_BOUND('',#211,.T.);
#139=CYLINDRICAL_SURFACE('',#212,12.0);
#140=POINT_STYLE(' ',#213,POSITIVE_LENGTH_MEASURE(1.0E-006),#214);
#141=CARTESIAN_POINT('',(12.0,0.0,3.0));
#142=CURVE_STYLE('',#215,POSITIVE_LENGTH_MEASURE(1.0E-006),#216);
#143=CIRCLE('',#217,12.0);
#144=CURVE_STYLE('',#218,POSITIVE_LENGTH_MEASURE(1.0E-006),#219);
#145=LINE('',#220,#221);
#146=CURVE_STYLE('',#222,POSITIVE_LENGTH_MEASURE(1.0E-006),#223);
#147=LINE('',#224,#225);
#148=POINT_STYLE(' ',#226,POSITIVE_LENGTH_MEASURE(1.0E-006),#227);
#149=CARTESIAN_POINT('',(-4.25,5.2045770037451E-016,0.0));
#150=SURFACE_STYLE_USAGE(.BOTH.,#228);
#151=FACE_OUTER_BOUND('',#229,.T.);
#152=FACE_BOUND('',#230,.T.);
#153=PLANE('',#231);
#154=SURFACE_STYLE_USAGE(.BOTH.,#232);
#155=FACE_OUTER_BOUND('',#233,.T.);
#156=CYLINDRICAL_SURFACE('',#234,4.25);
#157=POINT_STYLE(' ',#235,POSITIVE_LENGTH_MEASURE(1.0E-006),#236);
#158=CARTESIAN_POINT('',(4.25,0.0,3.0));
#159=CURVE_STYLE('',#237,POSITIVE_LENGTH_MEASURE(1.0E-006),#238);
#160=LINE('',#239,#240);
#161=CURVE_STYLE('',#241,POSITIVE_LENGTH_MEASURE(1.0E-006),#242);
#162=CIRCLE('',#243,12.0);
#163=POINT_STYLE(' ',#244,POSITIVE_LENGTH_MEASURE(1.0E-006),#245);
#164=CARTESIAN_POINT('',(12.0,0.0,0.0));
#165=SURFACE_STYLE_USAGE(.BOTH.,#246);
#166=FACE_OUTER_BOUND('',#247,.T.);
#167=CYLINDRICAL_SURFACE('',#248,4.25);
#168=CURVE_STYLE('',#249,POSITIVE_LENGTH_MEASURE(1.0E-006),#250);
#169=CIRCLE('',#251,12.0);
#170=POINT_STYLE(' ',#252,POSITIVE_LENGTH_MEASURE(1.0E-006),#253);
#171=CARTESIAN_POINT('',(-12.0,1.46952762458685E-015,3.0));
#172=SURFACE_STYLE_USAGE(.BOTH.,#254);
#173=FACE_OUTER_BOUND('',#255,.T.);
#174=FACE_BOUND('',#256,.T.);
#175=PLANE('',#257);
#176=CURVE_STYLE('',#258,POSITIVE_LENGTH_MEASURE(1.0E-006),#259);
#177=CIRCLE('',#260,4.25);
#178=PRODUCT_CONTEXT('',#36,'mechanical');
#179=PRODUCT_DEFINITION_FORMATION_WITH_SPECIFIED_SOURCE(' ','NONE',#101,.NOT_KNOWN.);
#180=CLOSED_SHELL('',(#68,#56,#98,#80,#92,#82));
#181=CARTESIAN_POINT('',(0.0,0.0,0.0));
#182=DIRECTION('',(0.0,0.0,1.0));
#183=DIRECTION('',(1.0,0.0,0.0));
#184= (NAMED_UNIT(#110)LENGTH_UNIT()SI_UNIT(.MILLI.,.METRE.));
#185=PRE_DEFINED_MARKER('');
#186=COLOUR_RGB('',0.505882382392883,0.505882382392883,0.584313750267029);
#187=DRAUGHTING_PRE_DEFINED_CURVE_FONT('continuous');
#188=COLOUR_RGB('',0.505882382392883,0.505882382392883,0.584313750267029);
#189=CARTESIAN_POINT('',(4.25,0.0,0.0));
#190=VECTOR('',#262,1000.0);
#191=DRAUGHTING_PRE_DEFINED_CURVE_FONT('continuous');
#192=COLOUR_RGB('',0.505882382392883,0.505882382392883,0.584313750267029);
#193=AXIS2_PLACEMENT_3D('',#263,#264,#265);
#194=SURFACE_SIDE_STYLE('',(#266));
#195=EDGE_LOOP('',(#267,#268,#269,#270));
#196=AXIS2_PLACEMENT_3D('',#271,#272,#273);
#197=DRAUGHTING_PRE_DEFINED_CURVE_FONT('continuous');
#198=COLOUR_RGB('',0.505882382392883,0.505882382392883,0.584313750267029);
#199=AXIS2_PLACEMENT_3D('',#274,#275,#276);
#200=PRE_DEFINED_MARKER('');
#201=COLOUR_RGB('',0.505882382392883,0.505882382392883,0.584313750267029);
#202=DRAUGHTING_PRE_DEFINED_CURVE_FONT('continuous');
#203=COLOUR_RGB('',0.505882382392883,0.505882382392883,0.584313750267029);
#204=AXIS2_PLACEMENT_3D('',#277,#278,#279);
#205=DRAUGHTING_PRE_DEFINED_CURVE_FONT('continuous');
#206=COLOUR_RGB('',0.505882382392883,0.505882382392883,0.584313750267029);
#207=AXIS2_PLACEMENT_3D('',#280,#281,#282);
#208=PRE_DEFINED_MARKER('');
#209=COLOUR_RGB('',0.505882382392883,0.505882382392883,0.584313750267029);
#210=SURFACE_SIDE_STYLE('',(#283));
#211=EDGE_LOOP('',(#284,#285,#286,#287));
#212=AXIS2_PLACEMENT_3D('',#288,#289,#290);
#213=PRE_DEFINED_MARKER('');
#214=COLOUR_RGB('',0.505882382392883,0.505882382392883,0.584313750267029);
#215=DRAUGHTING_PRE_DEFINED_CURVE_FONT('continuous');
#216=COLOUR_RGB('',0.505882382392883,0.505882382392883,0.584313750267029);
#217=AXIS2_PLACEMENT_3D('',#291,#292,#293);
#218=DRAUGHTING_PRE_DEFINED_CURVE_FONT('continuous');
#219=COLOUR_RGB('',0.505882382392883,0.505882382392883,0.584313750267029);
#220=CARTESIAN_POINT('',(12.0,0.0,0.0));
#221=VECTOR('',#294,1000.0);
#222=DRAUGHTING_PRE_DEFINED_CURVE_FONT('continuous');
#223=COLOUR_RGB('',0.505882382392883,0.505882382392883,0.584313750267029);
#224=CARTESIAN_POINT('',(-4.25,5.2045770037451E-016,0.0));
#225=VECTOR('',#295,1000.0);
#226=PRE_DEFINED_MARKER('');
#227=COLOUR_RGB('',0.505882382392883,0.505882382392883,0.584313750267029);
#228=SURFACE_SIDE_STYLE('',(#296));
#229=EDGE_LOOP('',(#297,#298));
#230=EDGE_LOOP('',(#299,#300));
#231=AXIS2_PLACEMENT_3D('',#301,#302,#303);
#232=SURFACE_SIDE_STYLE('',(#304));
#233=EDGE_LOOP('',(#305,#306,#307,#308));
#234=AXIS2_PLACEMENT_3D('',#309,#310,#311);
#235=PRE_DEFINED_MARKER('');
#236=COLOUR_RGB('',0.505882382392883,0.505882382392883,0.584313750267029);
#237=DRAUGHTING_PRE_DEFINED_CURVE_FONT('continuous');
#238=COLOUR_RGB('',0.505882382392883,0.505882382392883,0.584313750267029);
#239=CARTESIAN_POINT('',(-12.0,1.46952762458685E-015,0.0));
#240=VECTOR('',#312,1000.0);
#241=DRAUGHTING_PRE_DEFINED_CURVE_FONT('continuous');
#242=COLOUR_RGB('',0.505882382392883,0.505882382392883,0.584313750267029);
#243=AXIS2_PLACEMENT_3D('',#313,#314,#315);
#244=PRE_DEFINED_MARKER('');
#245=COLOUR_RGB('',0.505882382392883,0.505882382392883,0.584313750267029);
#246=SURFACE_SIDE_STYLE('',(#316));
#247=EDGE_LOOP('',(#317,#318,#319,#320));
#248=AXIS2_PLACEMENT_3D('',#321,#322,#323);
#249=DRAUGHTING_PRE_DEFINED_CURVE_FONT('continuous');
#250=COLOUR_RGB('',0.505882382392883,0.505882382392883,0.584313750267029);
#251=AXIS2_PLACEMENT_3D('',#324,#325,#326);
#252=PRE_DEFINED_MARKER('');
#253=COLOUR_RGB('',0.505882382392883,0.505882382392883,0.584313750267029);
#254=SURFACE_SIDE_STYLE('',(#327));
#255=EDGE_LOOP('',(#328,#329));
#256=EDGE_LOOP('',(#330,#331));
#257=AXIS2_PLACEMENT_3D('',#332,#333,#334);
#258=DRAUGHTING_PRE_DEFINED_CURVE_FONT('continuous');
#259=COLOUR_RGB('',0.505882382392883,0.505882382392883,0.584313750267029);
#260=AXIS2_PLACEMENT_3D('',#335,#336,#337);
#262=DIRECTION('',(0.0,0.0,1.0));
#263=CARTESIAN_POINT('',(0.0,0.0,0.0));
#264=DIRECTION('',(0.0,0.0,1.0));
#265=DIRECTION('',(1.0,0.0,0.0));
#266=SURFACE_STYLE_FILL_AREA(#338);
#267=ORIENTED_EDGE('',*,*,#62,.T.);
#268=ORIENTED_EDGE('',*,*,#86,.T.);
#269=ORIENTED_EDGE('',*,*,#94,.F.);
#270=ORIENTED_EDGE('',*,*,#74,.F.);
#271=CARTESIAN_POINT('',(0.0,0.0,0.0));
#272=DIRECTION('',(-0.0,-0.0,-1.0));
#273=DIRECTION('',(1.0,0.0,0.0));
#274=CARTESIAN_POINT('',(0.0,0.0,0.0));
#275=DIRECTION('',(0.0,0.0,1.0));
#276=DIRECTION('',(1.0,0.0,0.0));
#277=CARTESIAN_POINT('',(0.0,0.0,0.0));
#278=DIRECTION('',(0.0,0.0,1.0));
#279=DIRECTION('',(1.0,0.0,0.0));
#280=CARTESIAN_POINT('',(0.0,0.0,3.0));
#281=DIRECTION('',(0.0,0.0,-1.0));
#282=DIRECTION('',(1.0,0.0,0.0));
#283=SURFACE_STYLE_FILL_AREA(#339);
#284=ORIENTED_EDGE('',*,*,#86,.F.);
#285=ORIENTED_EDGE('',*,*,#72,.T.);
#286=ORIENTED_EDGE('',*,*,#74,.T.);
#287=ORIENTED_EDGE('',*,*,#88,.F.);
#288=CARTESIAN_POINT('',(0.0,0.0,0.0));
#289=DIRECTION('',(-0.0,-0.0,-1.0));
#290=DIRECTION('',(1.0,0.0,0.0));
#291=CARTESIAN_POINT('',(0.0,0.0,0.0));
#292=DIRECTION('',(0.0,0.0,1.0));
#293=DIRECTION('',(1.0,0.0,0.0));
#294=DIRECTION('',(0.0,0.0,1.0));
#295=DIRECTION('',(0.0,0.0,1.0));
#296=SURFACE_STYLE_FILL_AREA(#340);
#297=ORIENTED_EDGE('',*,*,#62,.F.);
#298=ORIENTED_EDGE('',*,*,#72,.F.);
#299=ORIENTED_EDGE('',*,*,#54,.T.);
#300=ORIENTED_EDGE('',*,*,#58,.T.);
#301=CARTESIAN_POINT('',(0.0,0.0,0.0));
#302=DIRECTION('',(0.0,0.0,1.0));
#303=DIRECTION('',(1.0,0.0,0.0));
#304=SURFACE_STYLE_FILL_AREA(#341);
#305=ORIENTED_EDGE('',*,*,#58,.F.);
#306=ORIENTED_EDGE('',*,*,#76,.T.);
#307=ORIENTED_EDGE('',*,*,#64,.F.);
#308=ORIENTED_EDGE('',*,*,#52,.F.);
#309=CARTESIAN_POINT('',(0.0,0.0,0.0));
#310=DIRECTION('',(-0.0,-0.0,-1.0));
#311=DIRECTION('',(1.0,0.0,0.0));
#312=DIRECTION('',(0.0,0.0,1.0));
#313=CARTESIAN_POINT('',(0.0,0.0,3.0));
#314=DIRECTION('',(0.0,0.0,1.0));
#315=DIRECTION('',(1.0,0.0,0.0));
#316=SURFACE_STYLE_FILL_AREA(#342);
#317=ORIENTED_EDGE('',*,*,#76,.F.);
#318=ORIENTED_EDGE('',*,*,#54,.F.);
#319=ORIENTED_EDGE('',*,*,#52,.T.);
#320=ORIENTED_EDGE('',*,*,#100,.F.);
#321=CARTESIAN_POINT('',(0.0,0.0,0.0));
#322=DIRECTION('',(-0.0,-0.0,-1.0));
#323=DIRECTION('',(1.0,0.0,0.0));
#324=CARTESIAN_POINT('',(0.0,0.0,3.0));
#325=DIRECTION('',(0.0,0.0,1.0));
#326=DIRECTION('',(1.0,0.0,0.0));
#327=SURFACE_STYLE_FILL_AREA(#343);
#328=ORIENTED_EDGE('',*,*,#94,.T.);
#329=ORIENTED_EDGE('',*,*,#88,.T.);
#330=ORIENTED_EDGE('',*,*,#64,.T.);
#331=ORIENTED_EDGE('',*,*,#100,.T.);
#332=CARTESIAN_POINT('',(0.0,0.0,3.0));
#333=DIRECTION('',(0.0,0.0,1.0));
#334=DIRECTION('',(1.0,0.0,0.0));
#335=CARTESIAN_POINT('',(0.0,0.0,3.0));
#336=DIRECTION('',(0.0,0.0,-1.0));
#337=DIRECTION('',(1.0,0.0,0.0));
#338=FILL_AREA_STYLE('',(#344));
#339=FILL_AREA_STYLE('',(#345));
#340=FILL_AREA_STYLE('',(#346));
#341=FILL_AREA_STYLE('',(#347));
#342=FILL_AREA_STYLE('',(#348));
#343=FILL_AREA_STYLE('',(#349));
#344=FILL_AREA_STYLE_COLOUR('',#350);
#345=FILL_AREA_STYLE_COLOUR('',#351);
#346=FILL_AREA_STYLE_COLOUR('',#352);
#347=FILL_AREA_STYLE_COLOUR('',#353);
#348=FILL_AREA_STYLE_COLOUR('',#354);
#349=FILL_AREA_STYLE_COLOUR('',#355);
#350=COLOUR_RGB('',0.505882382392883,0.505882382392883,0.584313750267029);
#351=COLOUR_RGB('',0.505882382392883,0.505882382392883,0.584313750267029);
#352=COLOUR_RGB('',0.505882382392883,0.505882382392883,0.584313750267029);
#353=COLOUR_RGB('',0.505882382392883,0.505882382392883,0.584313750267029);
#354=COLOUR_RGB('',0.505882382392883,0.505882382392883,0.584313750267029);
#355=COLOUR_RGB('',0.505882382392883,0.505882382392883,0.584313750267029);
ENDSEC;
END-ISO-10303-21;
